Aller au contenu

[Pirates des Caraïbes] He's a pirate


Messages recommandés


Intro (0.00-0.09)
E|--------------|--------------|--------------|---|
B|--------------|--------------|--------------|-7-| let ring
G|--------------|--------------|--------------|-7-|
D|--------------|--------------|--------------|---|
A|-5-55-55-5555-|-5-55-55-5555-|-5-55-55-5555-|-5-|
E|--------------|--------------|--------------|---|
-Note: 5’s on the A-string are muted, except the one in the chord.

Main Riff (2x) (0.10-0.37)
E|---------|---------|---------|---------|
B|---------|---5-6-6-|-6-8-5-5-|---------|
G|---5-7-7-|-7-------|---------|--7-5-7--|
D|-7-------|---------|---------|---------|
A|---------|---------|---------|---------|
E|---------|---------|---------|---------|

E|---------|---------|---------|---------|
B|---------|---5-6-6-|-6-8-5-5-|---------|
G|---5-7-7-|-7-------|---------|--7-5-7--|
D|-7-------|---------|---------|---------|
A|---------|---------|---------|---------|
E|---------|---------|---------|---------|

E|---------|---------|---5-6-6-|-5-3-5---|
B|---------|---5-8-8-|-8-------|-------3-|
G|---5-7-7-|-7-------|---------|---------|
D|-7-------|---------|---------|---------|
A|---------|---------|---------|---------|
E|---------|---------|---------|---------|

E|---------|----5----|---------|---------|
B|-----6-6-|--7------|---6-5-5-|--5---5--|
G|-5-7-----|------7--|-8-------|----7----|
D|---------|---------|---------|---------|
A|---------|---------|---------|---------|
E|---------|---------|---------|---------|

Interlude (0.37-0.43)
E|------------|-5-------|-6-------|--------|
B|--3-3-5-6-8-|---6-3---|---6-3---|--------|
G|------------|-------2-|-------3-|--2-3-2-|
D|------------|---------|---------|--------|
A|------------|---------|---------|--------|
E|------------|---------|---------|--------|

(0.43-0.50)
E|-5-5-5-6-5-|------------|-5-5-5-6-5-|---------|
B|-----------|-8-8-8-8-10-|-----------|-6-6-5-3-|
G|-----------|------------|-----------|---------|
D|-----------|------------|-----------|---------|
A|-----------|------------|-----------|---------|
E|-----------|------------|-----------|---------|

Solo (0.50-1.34)
E|-------|---5---|-------|---5---|---------|--------|--------|--------|
B|---5-6-|-8---8-|-6-5-6-|-8---8-|----8-10-|-10-8---|--------|--------|
G|-7-----|-------|-------|-------|-10------|------9-|-10-9-7-|-9----7-|
D|-------|-------|-------|-------|---------|--------|--------|---10---|
A|-------|-------|-------|-------|---------|--------|--------|--------|
E|-------|-------|-------|-------|---------|--------|--------|--------|

E|-------|-------|-----5-|-------|---------|----5-6-|--------|--------|
B|---5-6-|-5-6-8-|-6-8---|-8-6---|----5-6--|--8-----|---8-6--|-8-5-3--|
G|-7-----|-------|-------|-----7-|--7------|--------|-7------|--------|
D|-------|-------|-------|-------|---------|--------|--------|--------|
A|-------|-------|-------|-------|---------|--------|--------|--------|
E|-------|-------|-------|-------|---------|--------|--------|--------|

E|-----5-6-5-5-5-5-3-|-3-----------|
B|-5-----------------|---6-5-6-5-3-|
G|---5---------------|-------------|
D|-------------------|-------------|
A|-------------------|-------------|
E|-------------------|-------------|

E|-----5-6-5-5-8-5-3-|-3-----------|
B|-------------------|---6-5-6-5-3-|
G|-------------------|-------------|
D|-------------------|-------------|
A|-------------------|-------------|
E|-------------------|-------------|

E|-------5-------6-------5-5-8-5-3-|-3-----------|
B|-3-5-6---3-5-6---3-5-6-----------|---6-5-6-5-3-|
G|---------------------------------|-------------|
D|---------------------------------|-------------|
A|---------------------------------|-------------|
E|---------------------------------|-------------| 2x

 

 

pas trop de bisoux je vous prie

xD

Lien à poster
Partager sur d’autres sites
  • 2 weeks later...

Salut :D

J'voulais savoir si vous savez dans quels frets joue ce guitariste de 0:43 à 0:50 svp =/?

 

 

(Parce que dans la partie correspondante de la tab, C'est à dire :

(0.43-0.50)
E|-5-5-5-6-5-|------------|-5-5-5-6-5-|---------|
B|-----------|-8-8-8-8-10-|-----------|-6-6-5-3-|
G|-----------|------------|-----------|---------|
D|-----------|------------|-----------|---------|
A|-----------|------------|-----------|---------|
e|-----------|------------|-----------|---------| 

 

ça rend assez mal, surtout là =/

 

|---------|
|-6-6-5-3-|
|---------|
|---------|
|---------|
|---------| 

 

Et à la fin du morceau 1:32, comment il fait ce son de 'fin' avec sa corde =O?

 

Merci d'avance !

 

(Et où est ce que je peux trouver la version d'Athéna cité plus haut :o ? )

Lien à poster
Partager sur d’autres sites

Il fait ça entre 43 et 50 ;) (normalement)

 

E|----------------|------------|----------------|
B|-10-10-10-11-10-|-8-8-8-10---|-10-10-10-11-10-|
G|-10-10-10-10-10-|-9-9-9-9----|-10-10-10-10-10-|
D|----------------|------------|----------------|
A|----------------|------------|----------------|
e|----------------|------------|----------------|

 

Pour le son "fin", ça m'a tout l'air d'être un bend.

Lien à poster
Partager sur d’autres sites

 

(Et où est ce que je peux trouver la version d'Athéna cité plus haut :o ? )

 

j'ai reussi a la traduire entierement , mais ce n'est pas exactement pareil que lui, et comme il dit dans la description de sa video , mieux vaut le faire a sa sauce donc desolé pas de tabs actuellement

Lien à poster
Partager sur d’autres sites

@Knight-T : Merci !

@Blacksushi : Merci également ! Sinon, j'ai essayé de faire un slide de 5 à 7 mais j'entends plus mon doigt qui se frotte à la corde que le son? ô_o'

|---------|

|---------|

|--7-5-7--|

|---------|

|---------|

|---------|

Lien à poster
Partager sur d’autres sites
  • 2 years later...
  • 1 year later...

 

ça rend assez mal, surtout là =/

 

|---------|
|-6-6-5-3-|
|---------|
|---------|
|---------|
|---------| 

 

Et à la fin du morceau 1:32, comment il fait ce son de 'fin' avec sa corde =O?

 

Merci d'avance !

 

 

Ca date, mais ça peut toujours servir.

 

Personnellement, je trouve qu'à cet endroit, le seul moment où ça va pas, c'est effectivement ce que je viens de citer, et pour moi ce serait plutôt :

 

 

 

|---------|
|-8-6-5-3-|
|---------|
|---------|
|---------|
|---------| 

 

Pour le son de la fin, pour le reproduire, je fais un slide pour arriver sur la case de la dernière note, puis je bend en faisant "trembler" la corde avec le doigt, en même temps. Ca rend pas mal, même si c'est loin d'être aussi joli que dans cette vidéo.

Lien à poster
Partager sur d’autres sites

Veuillez vous connecter pour commenter

Vous pourrez laisser un commentaire après vous êtes connecté.



Connectez-vous maintenant
×
×
  • Créer...