Aller au contenu
  • 0

[Saez] Jeune et con


Question

Salut a tous

 

Un topic de plus sur cette chanson, je sais, mais je cherche l'intro originale, telle que jouée ici par exemple, sur guitare électrique

 

 

les 17 premières secondes, ou plus exactement de la 7eme a la 17 eme seconde

 

ça fait 2 jours que je cherche, que je tente, j'ai fouillé absolument tous les topics de T4A ayant pour sujet "saez" ou "jeune et con", j'ai du passer une dizaine d'heures sur GP a recopier des tabs piochées un peu partout, a écouter en boucle cette intro en cherchant a la reproduire : j'y arrive pas

 

La 1ere partie, ça va

 

e----------------------------------------|

b-----3-----1------0--------------------|

g---0-----0----0----0-2---0----0-----|

d-2----------------------------4--------|

a-------3--------------------------------|

E----------------------------------------|

 

 

mais c'est pour la seconde que je galère, ça fait a peine 3 mois que je découvre la gratte, j'arrive pas encore a reproduire un morceau a l'oreille

 

est ce que quelqu'un pourrait me trouver la "soluce"?

 

Merci a tous

 

Arnaud

Lien à poster
Partager sur d’autres sites

6 réponses à cette question

Messages recommandés

  • 0

Hello, merci pour ta réponse

 

oui je l'ai vue, c'est celle que j'ai regardé en 1er, mais ça correspond pas, la fin est pas la même

 

dans la vidéo que j'ai mis, y'a juste 2 parties, celle que j'ai mis en tab, et une autre d'environ la même durée, avec les 4 dernières notes qui "descendent"

 

a priori, la tab de T4A est la version acoustique...

 

sinon, je retrouve également l'intro que je cherche dans ce live

 

 

merci encore

Modifié par Fir141
Lien à poster
Partager sur d’autres sites
  • 0

salut

 

voici un autre lien, c'est la même, toujours de la 7eme a la 17eme

 

en fait, c'est le morceau "de base", tel qu'on l'a écouté en boucle sur toutes les radios y'a maintenant 15 ans (ça rajeunit pas)

tu le trouveras ici également

 

http://www.deezer.com/track/984398?utm_source=deezer&utm_content=track-984398&utm_term=6259083_1430979603&utm_medium=web

 

la, le début a 3 secondes de blanc, donc c'est de la 10eme a la 20 eme seconde

 

et pour la seconde vidéo que j'ai mis, c'est de la 44eme a la 54eme seconde, et dans les 3 cas, c'est (a moins que je me goure) exactement la même intro

 

merci beaucoup a tous pour vos réponses :)

Lien à poster
Partager sur d’autres sites
  • 0

yep, alors tu me confirmes ce que j'avais trouvé avec mon père entre temps, concernant les 4 dernières

 

ça donnerait

 

e----------------------------------------|

b-----3-----1------0--------------------|

g---0-----0----0----0-2---0----0-----|

d-2----------------------------4--------|

a-------3--------------------------------|

E----------------------------------------|

 

puis

 

 

e----------------------------------------|

b-----3-----1------0--------0-----------|

g---0-----0----0----0-2-------2--0-----|

d-2-------------------------------------2-|

a-------3--------------------------------|

E----------------------------------------|

 

mais dans le morceau, j'ai l'impression que les 2 notes juste avant les 4 dernières (si la sol mi) sont différentes, t'en penses quoi?

(et quand je le joue, ça sonne moyen, peut être parce que je suis pas encore totalement dans le temps... mais en tout cas ça semble moins cohérent que sur la 1ere partie)

 

en gros, ça donnerait

 

e---------------------------------------------|

b-----3-----1------0--?-?---0------------|

g---0-----0----0-----?-?-------2--0-----|

d-2-------------------?-?---------------2-|

a-------3-----------------------------------|

E--------------------------------------------|

 

merci encore pour ton aide, c'est super sympa

Lien à poster
Partager sur d’autres sites

Veuillez vous connecter pour commenter

Vous pourrez laisser un commentaire après vous êtes connecté.



Connectez-vous maintenant
×
×
  • Créer...