Aller au contenu
  • 0

[The Beatles] Twist and shout


Question

Salut à tous,

 

Voilà, j'ai trouvé un mec qui joue Twist and Shout super bien, j'ai reproduit ce qu'il fait, cependant il me reste le solo a déchifffré, et je ne vous cache pas que je n'y arrive pas du tout :

 

http://www.youtube.com/watch?v=1j5Q1C30_zU&feature=related

 

Quelqu'un serait le déchiffrer ? Ou me trouver la tab qui correspond a ce qu'il fait svp ? (Pour le solo)

 

Merci d'avance...

Lien à poster
Partager sur d’autres sites

28 réponses à cette question

Messages recommandés

  • 0

j ai trouvé ça :

 

-----------------------------------------------------------------------------

------------------------------------------------------------------------------

------------------------------------------------------------------------------

------------------------------------------------------------------------------

------------------------------------------------------------------------------

-5-5-7-9-7-5-8-7-5----5-7-9-7-5-8-7-5----5-7-9-7-5-8-7-5------------

Lien à poster
Partager sur d’autres sites
  • 0

j'imagine que tu fais allusion a 1:14 , si c'est ça moi je le jouerais comme ça (si ça peut t'aider) :

 

  G         A
e-----------------------I
b---------3--2----0-----I
g-------4-4--2--0-0--2--I
d--5--5-5-------2----4--I
a--5--5-----------------I
E-----------------------I

Lien à poster
Partager sur d’autres sites
  • 0

J'ai trouvé ça :

 

Twist And Shout Tab by Beatles, www.Ultimate-Guitar.Com

Learn to play "Twist And Shout" with online video lessons 
Artist: The Beatles
Song: Twist and Shout
Written by:Medley/Russell
Lead Vocal: John Lennon

Lyrics:Well, shake it up, baby, now, (shake it up, baby)
      Twist and shout. (twist and shout)
      C'mon, c'mon, c'mon, c'mon, baby, now, (come on baby)
      Come on and work it on out. (work it on out)

      Well, work it on out, honey. (work it on out)
      You know you look so good. (look so good)
      You know you got me goin', now, (got me goin')
      Just like I knew you would. (like I knew you would)

      Well, shake it up, baby, now, (shake it up, baby)
      Twist and shout. (twist and shout)
      C'mon, c'mon, c'mon, c'mon, baby, now, (come on baby)
      Come on and work it on out. (work it on out)

      You know you twist your little girl, (twist, little girl)
      You know you twist so fine. (twist so fine)
      Come on and twist a little closer, now, (twist a little closer)
      And let me know that you're mine. (let me know you're mine)

      Shake it up, baby, now, (shake it up, baby)
      Twist and shout. (twist and shout)
      C'mon, c'mon, c'mon, c'mon, baby, now, (come on baby)
      Come on and work it on out. (work it on out)

      You know you twist your little girl, (twist, little girl)
      You know you twist so fine. (twist so fine)
      Come on and twist a little closer, now, (twist a little closer)
      And let me know that you're mine. (let me know you're mine)

      Well, shake it, shake it, shake it, baby, now. (shake it up baby)
      Well, shake it, shake it, shake it, baby, now. (shake it up baby)
      Well, shake it, shake it, shake it, baby, now. (shake it up baby)

Main Riff:
e|----------5----3---------------------5----3---5-5-5-5-------|
B|----------7----3----5-5-5-5----------7----3---5-5-5-5-------|
G|----------7----4----6-6-6-6----------7----4---6-6-6-6-------|
D|----------7----5----7-7-7-7----------7----5---7-7-7-7-------|
A|------4-5------5----7-7-7-7------4-5------5---7-7-7-7-------|
E|--5-7--------3----5----------5-7--------3----5--------------|


A          A             A           A7       A7
Ahhhhhhhhh Ahhhhhhhhhhhh Ahhhhhhhhhh Ahhhhhhh Ahhhhhh


Solo:
e|--------3-2-2-0----------3-2-2-0----------3-2-2-0----------3-2-2-0------|
B|------5-5-3-3-1-3------5-5-3-3-1-3------5-5-3-3-1-3------5-5-3-3-1-3----|
G|--4-4-5---------4--4-4-5---------4--4-4-5---------4--4-4-5---------4----|
D|--5-5--------------5-5--------------5-5--------------5-5----------------|
A|------------------------------------------------------------------------|
E|------------------------------------------------------------------------|

Ending:             (Drums)
e|--------------------------5-------------------------|
B|--------------------------5-------------------------|
G|---------7-9-11-12--------5-------------------------|
D|--7-9-11-7-9-11-12--------4-------------------------|
A|--7-9-11-5-7-9--10--------5-------------------------|
E|--5-7-9---------------------------------------------|

 

Source : www.ultimate-guitar.com

 

Le solo sonne plus aigu que sur la vidéo bien qu'il soit dans la même tonalité.

 

:guitare:

 

Béhèf

Lien à poster
Partager sur d’autres sites
  • 0
j'imagine que tu fais allusion a 1:14 , si c'est ça moi je le jouerais comme ça (si ça peut t'aider) :

 

  G         A
e-----------------------I
b---------3--2----0-----I
g-------4-4--2--0-0--2--I
d--5--5-5-------2----4--I
a--5--5-----------------I
E-----------------------I

 

Pas mal du tout, je trouve juste que le début les deux 55 sont un peu trop grave

Lien à poster
Partager sur d’autres sites
  • 0

Salut Ruru ,jvais te dire comment je vois ça,en fait le solo est une suite d'arpèges(à deux notes,je sais pas si on peut les nommer ainsi) basés sur la suite d'accords de la chanson (D,G,A),accords dont on utilise certaines positions pour faire ressortir certaines couleurs

 

autrement dit sur le ré(x54232) ça donne

 


----------
----------
---------
---4--4---
---5--5---
---------

 

Sur le Sol(355433)

 

------------
-----3--------
--4-4----------
--5-----------
---------------
--------------

 

Sur le La(x02220)

 

------------------
-----2-------------
-----2-------------
------------------
------------------
------------------

 

Après on peut utiliser d'autres positions pour retrouver les mêmes notes,invité t'expliquera ça sûrement plus en détails

Lien à poster
Partager sur d’autres sites
  • 0

Voilà la vidéo !!

 

J'ai evidemment déchiffré exactement ce que le type fait sur la vidéo !! :D):D):D)

Je ne prétend donc pas faire ce que font les Beatles !! :p

 

C'est du vite fait, les pains sont donc restés sur la vidéo !! snif:snif:snif:

A un moment dans la partie du solo je dis Do# alors que c'est Fa# !! ;)

 

Dites-moi ce que vous en pensez !! :D)

 

http://www.youtube.com/watch?v=930NxwaHs9k

 

Bonne vidéo, . :guitare:

Lien à poster
Partager sur d’autres sites
  • 0

Oh tu sais, c'est pas compliqué !! :p

Tu verras quand tu auras 30 ans de plus, (18 => 48) mon age d'aujourd'hui en fait, tu pourras aussi faire ce que je fais et à leur tour les jeunes débutants te "cireront les pompes", lol !!! xDxDxD

 

. :guitare:

Lien à poster
Partager sur d’autres sites
  • 0

Bah en tout cas je vais faire ce que je peux pour progresser le plus possible pendant les 30 années avenir et j'espere maitriser cet instrument aussi bien que toi (ou presque :p ) d'ici là .

Lien à poster
Partager sur d’autres sites

Veuillez vous connecter pour commenter

Vous pourrez laisser un commentaire après vous êtes connecté.



Connectez-vous maintenant
×
×
  • Créer...