Aller au contenu

[The Handsome Family] Far from any road


Messages recommandés

Bonjour j'aimerais récupérer les diagrammes d'accord ou les tablatures de la musique de générique de la série true détective que je trouve sympa

Le titre : Far from any road par le groupe "the handsome famiiy"

 

merci pour les réponses :)

Modifié par grimmy10
Lien à poster
Partager sur d’autres sites
  • 2 weeks later...

Intro: Am

Am			 E
From the dusty May sun
Dm				 Am
Her looming shadow grows
Am			 E
Hidden in the branches
Dm				 Am
of the poison creosote
	 C
She twines her spines up slowly
G
Towards the boiling sun
 Dm
And when I touched her skin
 F			 Am
My fingers ran with blood
Am			 E
In the hushing dusk
	 Dm			 Am
Under a swollen silver moon
Am		 E
I came walking with the wind
Dm				 Am
To watch the cactus bloom
 C
And strange hands halted me,
 G
The looming shadows danced
Dm
I fell down to the thorny brush
 F			 Am
And felt the trembling hands
Am				 E
When the last light warms the rocks
	 Dm		 Am
And the rattlesnakes unfold
Am			 E
Mountain cats will come
Dm			 Am
to drag away your bones
 C
And rise with me forever
G
Across the silent sand
	 Dm
And the stars will be your eyes
	 F				 Am
And the wind will be my hands

source: ultimateGuitar.com

 


Intro (also used at the end of the song):
Am
e|------0-0-----------0-0----------0-0-----------0-0-------------------------|
B|------1-1-----------1-1----------1-1-----------1-1-------------------------|
G|------2-2-----------2-2----------2-2-----------2-2-------------------------|
D|------2-2--2-2------2-2--2-2-----2-2--2-2------2-2--2-2--------------------|
A|---0--------0----0--------0---0--------0----0--------0---------------------|
E|---------------------------------------------------------------------------|
Verses:
Am			 E			 Dm		 Am
e|------0-0-----------0-0-----------1-1-----------0-0------------------------|
B|------1-1-----------0-0-----------3-3-----------1-1------------------------|
G|------2-2-----------1-1-----------2-2--2-2------2-2------------------------|
D|------2-2--2-2------2-2--------0--------0-------2-2--2-2-------------------|
A|---0--------0-------2-2--2-2-----------------0--------0--------------------|
E|-----------------0--------0------------------------------------------------|
From the dusty mesa her	 looming shadow grows...
Chorus:
The chorus isn't picked, but is just based around very fast strumming of these chords:
 C
She twines her spines up slowly
G
Toward the boiling sun
 Dm
And when I touched her skin
 F			 Am
My fingers ran with blood

 

 

https://tabs.ultimat...e_theme_tab.htm

 

https://tabs.ultimat...e_theme_crd.htm

Lien à poster
Partager sur d’autres sites

Veuillez vous connecter pour commenter

Vous pourrez laisser un commentaire après vous êtes connecté.



Connectez-vous maintenant
×
×
  • Créer...