Aller au contenu

[The Police] Every breath you take


Messages recommandés

Every Breath you Take

 

Bon, cette fois exceptionnelement je vais fusionner les arpèges et les paroles :D

 

Wahou Baka t'es trop fort :love:

 

Bon bref, cette musique est a jouer entierement en "Palm Mute"

Kezaco ? => Apprendre le Palm Mute

 

Bon c'est parti :

 

Donc déja, voici les arpèges, ce sont toutes des croches (1/2 temps) :

 

 

G9

e |--------------------------------------|
b |---------------------0----------------|
g |-------------2-----------2-------2----|         
d |---------0-------2-----------2--------|
a |--------------------------------------|
e |-----3--------------------------------|

Em9

e |--------------------------------------|
b |--------------------------------------|
g |---------------------0----------------|
d |-------------4------------4------4----|       
a |---------2-------2-----------2--------|
e |-----0--------------------------------|

C9

e |--------------------------------------|
b |-------------3--------1---------------|
g |---------0----------------0------0----|
d |--------------------------------------|       
a |-----3------------3-----------3-------|
e |--------------------------------------|

D9

e |--------------0-----------------------|
b |-----------------------3--------------|
g |---------2-----------------2-------2--|
d |-----0------------0------------0------|          
a |--------------------------------------|
e |--------------------------------------|

 

 

 

Maintenant il vous suffit d'adapter ces arpèges aux paroles, pour cela, une petite video :

http://youtube.com/watch?v=jXq3hO82cTY

 

 

Les Paroles

 

=> Couplet 1 :


G9  x2
Every breathe you take   
 Em9 x2
Every move you make     
 C9
Every bond you break      
 D9
Every step you take         
 Em9 x2
I'll be watching you          


=> Couplet 2 :



G9 x2
Every single day
Em9 x2
And every word you say
C9 
Every game you play
D9
Every night you stay
G9 x2
I'll be watching you


=> Chorus :

                     C9                        G9
Oh can't you see, you belong to me
                             Em                                   D9
My poor heart aches, with every breath you take


=> Couplet 3 :

G9 x2
And every move you make
Em9 x2
And every vow you break
C9
Every smile you fake
D9
Every claim you stake
Em9 x2
I'll be watching you


=>*Refaire le Chorus*


=> Pont :  (accords normaux)


Eb                                                                  F
Since you've being gone I've being lost without a trace
                                                               Eb
All trough the night I can only see your face
                                                        F
I look around but it's you I can't replace
                                                     Eb
I feel so lonely I long for your embrace
                                             G9
I keep callin' , baby, baby please

 

Voila :D) pas besoin de mettre de sources puisqu'il y en a pas, si ce n'est les paroles sur le site de fan

Lien à poster
Partager sur d’autres sites
  • 5 years later...

Hello,

 

Une petite tablature au format GP faite par moi même!

C'est une version acoustique pour 2 guitares largement inspirée de cette vidéo:

 

http://www.youtube.com/watch?v=tAWy3qjLnQU

 

Je joints également les paroles de la chanson. A la base j'avais fais tous ça dans le but d'accompagner une copine chanteuse et de la jouer au mariage d'un pote, bon c'est un peu compromis mais je partage mon "travail"!!!

Every breath you take.gpx

post-41789-0-42541200-1369151821_thumb.jpg

post-41789-0-35418500-1369151840_thumb.jpg

Modifié par toffy
format du titre et topic existant
Lien à poster
Partager sur d’autres sites

Merci de faire une recherche pour savoir si il y a déjà une tab correspondante.

Ici le topic a déjà été créé et fait attention au format du titre.

Modifié par toffy
Lien à poster
Partager sur d’autres sites

Veuillez vous connecter pour commenter

Vous pourrez laisser un commentaire après vous êtes connecté.



Connectez-vous maintenant
×
×
  • Créer...