Aller au contenu

[The Staves] Make it holly


Messages recommandés

Bonjour

J'ai déplacé ta demande dans Recherche tablatures à la place de Technique guitare.

Pourras-tu lire ces règles pour une prochaine demande.

Merci

 

http://www.tabs4acoustic.com/forum-guitare/regles-a-lire-avant-de-rediger-une-demande-t90.html

 

http://www.tabs4acoustic.com/forum-guitare/tuto-pour-lecriture-dun-titre-correct-t15173.html

 

Nous allons tout faire pour te trouver ce que tu demandes ;)

Lien à poster
Partager sur d’autres sites

Tuning: EADGBd
Capo 1

[intro]
d|---------------0-|---------------0-|-----------------|-----------------|
B|-------0---------|-------0---------|-------0-------0-|-------0-------0-|
G|-----0-----0-----|-----0-----0-----|-----0-----0-----|-----0-----0-----|
D|---5---------5---|---5---------5---|---5---------5---|---5---------5---|
A|-7-------7-------|-5-------5-------|-3-------3-------|-3-------3-------|
E|-----------------|-----------------|-----------------|-----------------|
d|---------------0-|---------------0-|-----------------|-----------------|
B|-------0---------|-------0---------|-------0-------0-|-------0-------0-|
G|-----0-----0-----|-----0-----0-----|-----0-----0-----|-----0-----0-----|
D|---5---------5---|---5---------5---|---5---------5---|---5---------5---|
A|-7-------7-------|-5-------5-------|-3-------3-------|-3-------3-------|
E|-----------------|-----------------|-----------------|-----------------|

[First Chorus]
d|---------------0-|---------------0-|---------------0-|---------------0-|
B|-------0---------|-------0---------|-------0---------|-------0---------|
G|-----0-----0-----|-----0-----0-----|-----0-----0-----|-----0-----0-----|
D|---5---------5---|---5---------5---|---5---------5---|---5---------5---|
A|-7-------7-------|-5-------5-------|-3-------3-------|-3-------3-------|
E|-----------------|-----------------|-----------------|-----------------|  x4

[Verse]
d|---------------0-|---------------0-|---------------0-|---------------0-|
B|-------0---------|-------0---------|-------0---------|-------0---------|
G|-----0-----0-----|-----0-----0-----|-----0-----0-----|-----0-----0-----|
D|---5---------5---|---5---------5---|---5---------5---|---5---------5---|
A|-----------------|-----------------|-3-------3-------|-3-------3-------|
E|-0-------0-------|-3-------3-------|-----------------|-----------------|   x2
d|---------------0-|---------------0-|---------------0-|---------------0-|
B|-------0---------|-------0---------|-------0---------|-------0---------|
G|-----0-----0-----|-----0-----0-----|-----0-----0-----|-----0-----0-----|
D|---5---------5---|---5---------5---|---5---------5---|---5---------5---|
A|-7-------7-------|-5-------5-------|-3-------3-------|-3-------3-------|
E|-----------------|-----------------|-----------------|-----------------|   x2

[Chorus]
d|---------------0-|---------------0-|---------------0-|---------------0-|
B|-------0---------|-------0---------|-------0---------|-------0---------|
G|-----0-----0-----|-----0-----0-----|-----0-----0-----|-----0-----0-----|
D|---5---------5---|---5---------5---|---5---------5---|---5---------5---|
A|-----------------|-----------------|-3-------3-------|-3-------3-------|
E|-0-------0-------|-3-------3-------|-----------------|-----------------|   x3
d|---------------0-|---------------0-|---------------0-|---------------0-|
B|-------0---------|-------0---------|-------0---------|-------0---------|
G|-----0-----0-----|-----0-----0-----|-----0-----0-----|-----0-----0-----|
D|---5---------5---|---5---------5---|---5---------5---|---5---------5---|
A|-7-------7-------|-5-------5-------|-3-------3-------|-3-------3-------|
E|-----------------|-----------------|-----------------|-----------------|

 

source UltimateGuitar.com

 

Attention à l'accordage

Lien à poster
Partager sur d’autres sites

Veuillez vous connecter pour commenter

Vous pourrez laisser un commentaire après vous êtes connecté.



Connectez-vous maintenant
×
×
  • Créer...