Aller au contenu

[The White Stripes] Seven nations army


Messages recommandés

Seven Nation Army Tab by White Stripes, www.Ultimate-Guitar.Com

 

Tabbed by: Colin Puff 
song: 7 nation amry 
Band:The white strips 

tune guitar to open A tuning (low to high: E A E A C# E) 
this is the exact way to play this song 

riff 1 : 

use a sub octave effect to get the sound that jack gets in the intro 

e-------------------------------=-----------| 
C#------------------------------------------| 
A-------------------------------------------| 
E-------------------------------------------| 
A---7----7----10----7----5----3----2--------| A---7----7----10----7----5----3----5---3-----2 
E-------------------------------------------| 
8x 

pre-chours : 

e-------------------------------------------| 
C#-----------------------0-0-0-0--0-0-0-0---| 
A------------------------0-0-0-0--0-0-0-0---| 
E-0-0--------------------0-0-0-0--0-0-0-0---| 
A-0-0--5-5-5-5--5-5-5-5--0-0-0-0--0-0-0-0---| 
E-0-0--3-3-3-3--3-3-3-3--0-0-0-0--0-0-0-0---| 

chours: 

e--------------------------------------| 
C#---7--7--/--10--7--5--3--2-----------| 
A----7--7--/--10--7--5--3--2-----------| 
E----7--7--/--10--7--5--3--2-----------| 
A----7--7--/--10--7--5--3--2-----------| 
E--------------------------------------| 

e-------------------------------=-----------| 
C#--7-7--/--10--7--5--3--/-5-/-3--2--0------| 
A---7-7--/--10--7--5--3--/-5-/-3--2--0------| 
E---7-7--/--10--7--5--3--/-5-/-3--2--0------| 
A---7-7--/--10--7--5--3--/-5-/-3--2--0------| 
E-------------------------------------------| 

Riff 2(after chours): 

e-------------------------------------------| 
C#-----------------------0-0-0-0--0-0-0-0---| 
A------------------------0-0-0-0--0-0-0-0---| 
E------------------------0-0-0-0--0-0-0-0---| 
A------5-5-5-5--5-5-5-5--0-0-0-0--0-0-0-0---| 
E------3-3-3-3--3-3-3-3--0-0-0-0--0-0-0-0---| 

Guitar solo: 

e----------------------------------------------------| 
C#---------------------------------------------------| 
A---------------10--9--9/0------------10--12--10-----| 
E--12-12-12-12--------------------12-----------------| 
A-----------------------------12---------------------| 
E-----------------------------12---------------------| 

e----------------------------------------------------------| 
C#---------------------------------------------------------| 
A---10/12--10--9--0-----------------10------10/9--9--------| 
E--------------------/12-12-12--12------12-----------------| 
A--------------------/12-12-12-----------------------------| 
E----------------------------------------------------------| 

e-------------------------------=----------12--12--12--15--12--12--| 
C#-----------------------------------------------------------------| 
A-----------10--12--10--10--12--10--9--0---------------------------| 
E--/12--12---------------------------------------------------------| 
A--/12--12---------------------------------------------------------| 
E--/12-------------------------------------------------------------| 

e---14--/12--12/15--17--15--15/17--15--14--0-| 
C#-------------------------------------------| 
A--------------------------------------------| 
E--------------------------------------------| 
A--------------------------------------------| 
E--------------------------------------------| 

e---12--12--12/14--12--12--17--14--12--12--12/14-12--12-| 
C#------------------------------------------------------| 
A-------------------------------------------------------| 
E-------------------------------------------------------| 
A-------------------------------------------------------| 
E-------------------------------------------------------| 

e---14--12-----------------------------------------------| 
C#----------11--10----/10----/12----12------------------| 
A-------------------0-/10-8x-/12-6x-12------------------| 
E---------------------/10----/12----12------------------| 
A----------------------------/12----12=-----------------| 
E-----------------------------------12------------------|

 

SuN> Mise en page avec les balises [ TAB ] pr un affichage correct de la tab ;)

Lien à poster
Partager sur d’autres sites
  • 6 months later...

Bonjour Bonjour !

 

J'aimerais, si possible avoir la tablature de cet chanson, je sais que sa a deja été demander mais c'est pas vraiment la meme version c'est pour sa ! ( ma soeur adore alors sa sera cadeau )

 

http://www.dailymotion.com/video/x53xay_thomas-nouvelle-star-2008-seven-nat_music

 

Merci d'avance !

 

 

edit d'andu : post déplacé dans le bon endroit

Lien à poster
Partager sur d’autres sites
  • 2 weeks later...

Intro : Basse x 8

Couplet x 16 - Guitare 1

G5
----------------------------------------
----------------------------------------
----------------------------------------
-3---3---3---3---3---3---3---3----------
-5---5---5---5---5---5---5---5----------
-3---3---3---3---3---3---3---3----------
           Tout en croches


A
----------------------------------------
-O---O---O---O---O---O---O---O----------
-O---O---O---O---O---O---O---O----------
-O---O---O---O---O---O---O---O----------
-O---O---O---O---O---O---O---O----------
----------------------------------------
           Tout en croches




REFRAIN : Guitare 1

       E             G   E   D      C   B
--------------------------------
--Slide 7---7  Slide 1O---7---5-- : -3---2---X---X--
----/---7---7----/---1O---7---5-- : -3---2---X---X--
----/---7---7----/---1O---7---5-- : -3---2---X---X--
----/---7---7----/---10---7---5-- : -3---2---X---X--
--------------------------------- / ----------------
       N   C         C   N   N      B   N   N   N
                    /--- 3 ---/


                              /----- 3 -----/              
E             G   E   D       C        D   C   B   A
-------------------------------------------------------
-7---7--Slide 10---7---5--- : -3--Slide 5---3---2---O--
-7---7--Slide 10---7---5--- : -3--Slide 5---3---2---O--
-7---7--Slide 10---7---5--- : -3--Slide 5---3---2---O--
-7---7--Slide 10---7---5--- : -3--Slide 5---3---2---O--
-------------------------------------------------------
N   C         C   N   N       C        C   N   N   N



G5
-------------------------------------
-------------------------------------
-------------------------------------
-3---3---3---3---3---3---3---3-------
-5---5---5---5---5---5---5---5------- (croches)
-3---3---3---3---3---3---3---3-------


A
----------------------------------------
-O---O---O---O---O---O---O---O----------
-O---O---O---O---O---O---O---O---------- (croches)
-O---O---O---O---O---O---O---O----------
-O---O---O---O---O---O---O---O----------
----------------------------------------

SOLO : Guitare 2 avec guitare 1 sur le refrain

---------------------------------------------
--------------------------1O Slide 9---(O)---
-12---12---12---12---12----------------------
---------------------------------------------
---------------------------------------------
---------------------------------------------







-----------------------------------------------------------
-----------------------------------------------------------
-----------------1O---12---1O---1O Slide 12---1O---9---(O)-
-Slide 12---12---------------------------------------------
-Slide 12--------------------------------------------------
-----------------------------------------------------------


----------------------------------------------
----------------------------------------------
----------------------10--------10---Slide 9--
-Slide 12---12---12--------12-----------------
-Slide 12-------------------------------------
----------------------------------------------


-----------------------------------------------------------
-----------------------------------------------------------
-----------------1O---12---1O---1O Slide 12---1O---9---(O)-
-Slide 12---12---------------------------------------------
-Slide 12--------------------------------------------------
-----------------------------------------------------------



-Slide 12--12--12--12--Sl. 15--12--12--Sl. 15--Sl. 14--
-------------------------------------------------------
-------------------------------------------------------
-------------------------------------------------------
-------------------------------------------------------
-------------------------------------------------------


-Slide 12--12--15--17--15--15--Sl. 17--15--14--O--Sl. 12---
-----------------------------------------------------------
-----------------------------------------------------------
-----------------------------------------------------------
-----------------------------------------------------------
-----------------------------------------------------------


-Slide 12--12--Sl. 14--12--12--Sl. 17--Sl. 14--O--Sl. 12---
-----------------------------------------------------------
-----------------------------------------------------------
-----------------------------------------------------------
-----------------------------------------------------------
-----------------------------------------------------------

/----- 3 -----/
-12--12--Sl. 14--12--12--Sl. 14--12------------------------
-------------------------------------11--1O--Slide down----
-----------------------------------------------------------
-----------------------------------------------------------
-----------------------------------------------------------
-----------------------------------------------------------


-----------------------------------------------------------
-----------------------------------------------------------
-Slide 1O---1O---1O---1O---1O---1O---1O---1O---------------
-Slide 1O---1O---1O---1O---1O---1O---1O---1O-- (croches) 
-Slide 1O---1O---1O---1O---1O---1O---1O---1O---------------  
-----------------------------------------------------------
-----------------------------------------------------------


-----------------------------------------------------------
-----------------------------------------------------------
-Slide 12---12---12---12---12---12---12---12---------------
-Slide 12---12---12---12---12---12---12---12-- (croches)
-Slide 12---12---12---12---12---12---12---12---------------
-----------------------------------------------------------
-----------------------------------------------------------


-----------------------------------------------------------
-----------------------------------------------------------
-----------------------------------------------------------
-----------------------------------------------------------
-----------------------------------------------------------
------O ( Ronde x 2)--------O ( Ronde x 2 )----------------

 

 

Ya ça aussi, ça dépend de ce que tu cherches vraiment :p

 

Artist: White Stripes
Title: Seven Nation Army



Main Riff						  
E |--------------------|--------------------
C#|--------------------|--------------------
A |--------------------|--------------------
E |--------------------|--------------------
A |-7---7-10-7--5-3--2-|-7---7-10-7--5-3--2-
E |--------------------|--------------------     (X2)

Verse 1--------------------------------------------------------------------------
E                         C  
I'm gonna fight 'em off
 B             E                     C
A seven nation army couldn't hold me back
 B            E          C 
They're gonna rip it off
 B           E                     C
Taking their time right behind my back
 B           E               c 
And I'm talking to myself at night
          B       E      C   B   
Because I can't forget
E                C         
Back and forth through my mind
      B      E     C   B
Behind a cigarette
G (53xxxx)                       A (75xxxx)
And the message coming from my eyes
                      D-  9  9 12 9 7 5 4 // 9  9 12 9 7 5 7 5 4  (X2)  2
Says leave it alone    A-  7  7 10 7 5 3 2 // 7  7 10 7 5 3 5 3 2        0 

G(53xxxx)  A(75xxxx)

A |-7---7-10-7--5-3--2-|-7---7-10-7--5-3--2-
E |--------------------|--------------------     (X2)

Verse 2---------------------------------------------------------------------------

E                            C
Don't want to hear about it
B            E                       C
Every single one's got a story to tell
B           E           C
Everyone knows about it
B                E                            C
From the Queen of England to the hounds of hell
B        E                       C
And if I catch it coming back my way
          B           E   C  B
I'm gonna serve it to you
        E                        C
And that ain't what you want to hear,
           B         E    C   B
But that's what I'll do
 G(53xxxx)                    A(75xxxx)
And the feeling coming from my bones
                    D-  9  9 12 9 7 5 4 // 9  9 12 9 7 5 7 5 4  (X2)  2
Says find a home     A-  7  7 10 7 5 3 2 // 7  7 10 7 5 3 5 3 2        0

SOLO ou
G(53xxxx)  A(75xxxx)

A |-7---7-10-7--5-3--2-|-7---7-10-7--5-3--2-
E |--------------------|--------------------     (X2)


Verse 3----------------------------------------------------------------------------
 E                   C
I'm going to Wichita
B            E                       C
Far from this opera for evermore
B           E           C
I'm gonna work the straw
B                E                            C
Make the sweat drip out of every pore
B        E                       C
And I'm bleeding, and I'm bleeding, and I'm bleeding
       B           E   C  B
Right before the lord
        E                        C
All the words are gonna bleed from me
           B         E    C   B
And I will think no more
G(53xxxx)                    A(75xxxx)
And the stains coming from my blood
                       D-  9  9 12 9 7 5 4 // 9  9 12 9 7 5 7 5 4  (X2)  2
Tell me go back home    A-  7  7 10 7 5 3 2 // 7  7 10 7 5 3 5 3 2        0

G(53xxxx)  A(75xxxx)

A |-7---7-10-7--5-3--2-|-7---7-10-7--5-3--2-
E |--------------------|--------------------     (X2)

Lien à poster
Partager sur d’autres sites
  • 3 weeks later...

Bon allez je suis une ame charitable , 3heures dessus pour enfin trouver les trucs qui la composent ..

 

1er accord : 557765

2eme : 678866

3eme : 577655

4eme : 022000

5eme : 224332

 

le rythme ca fait :

 

1er accord ( corde numero 5 puis 1-2-3 en même temps )

2eme ( 6eme corde puis 1-2-3 )

3eme ( idem )

4eme ( idem )

5eme ( idem )

6eme ( idem )

 

voiiiilaaaaaaaaaaaaaaaa ;)

Lien à poster
Partager sur d’autres sites
Bon allez je suis une ame charitable , 3heures dessus pour enfin trouver les trucs qui la composent ..

 

1er accord : 557765

2eme : 678866

3eme : 577655

4eme : 022000

5eme : 224332

 

le rythme ca fait :

 

1er accord ( corde numero 5 puis 1-2-3 en même temps )

2eme ( 6eme corde puis 1-2-3 )

3eme ( idem )

4eme ( idem )

5eme ( idem )

6eme ( idem )

 

voiiiilaaaaaaaaaaaaaaaa ;)

 

la tab est trouvé vaudrais mieux la classer en mettant seven nation army Thomas cover nouvelle star

Lien à poster
Partager sur d’autres sites

Blacksushi, j'arrive pas vraiment à suivre tes accords.

 

Moi je trouve un truc tout bête:

 

Pour les couplets:

 

Em7: x79787

 

C7: x35353

 

B7: x24242

 

Et pour la p'tite montée:

 

G7: 353433

 

A7: 575655

 

A l'oreille, ça m'parait être ça

Lien à poster
Partager sur d’autres sites
  • 3 weeks later...

Bon bah non pas pour passer pour un chieur hein, mais si t'es persuadé qu'ils sont bons, soit tu les écris mal soit on joue pas la même chanson :D)

Parce que celle la je l'ai jouée et rejouée en accoustique avec une chanteuse fan de la reprise, et sur le coup la j'suis plutot sur de moi :)

Lien à poster
Partager sur d’autres sites

Le riff là dans l'enregistrement studio il est joué avec une guitare electro accoustique branchée dans un octaver réglée une octave plus bas. Mais pour que ca sonne mieux il vaut mieux le jouer à la basse quand on est dans un groupe (et si possible avec un bassiste qui a toutes ses cordes :p )

Lien à poster
Partager sur d’autres sites
  • 2 months later...

Bonjour !

 

Eywi, c'est moi ! :D)

 

Donc je viens ici, pour demander la tablature (simplifié) de seven nation army des White stripes. J'entend dans 'simplifié', une explication avec des mots et non pas un tableau bizzaroïde avec ce mode universel anglais de lettres où c'est tout à l'envers :$ Merci de comprendre cette demande originale ! è__é

 

Merci d'avance =p

 

Signé : mushyou ! :zik:

 

(P.s : je sais que la tablature est déjà présente, mais j'en veux une 'simplifié' :p )

Lien à poster
Partager sur d’autres sites

Salut, tu peux jouer la version basse sinon qui est plutot facile !

 

Couplet : corde de La (deuxieme la plus grave) 7~-7-10-7-5-3-2

 

Brigde (juste avant le refrain) corde de Mi (la plus grave) : 3-3-3-3-3-3-3-3-5-5-5-5-5-5-5-5

 

pour le refrain : 7~-7-10-7-5-3-2 avec la variante une fois sur deux : 7~-7-10-7-5-3-5-3-2

 

Et il y a des solo pendant le deuxieme refrain du genre (corde de "La" ) 7-7-10-7-7-10~-9-7-7-10 ... jm'en souvient plus trop de la suite ;)

 

Blacksushi ta version est une tierce trop grave il me semble non ? enfin ça sonne juste quand même !

Lien à poster
Partager sur d’autres sites

Veuillez vous connecter pour commenter

Vous pourrez laisser un commentaire après vous êtes connecté.



Connectez-vous maintenant
×
×
  • Créer...