Aller au contenu

[Traditionnel Irlandais] The ships are sailing


Messages recommandés

Un nouveau morceau irlandais, qui sonne presque médiéval même tongue.gif

Relativement difficile...

Au niveau du rythme, ce sont des croches, sauf quelques petits triolets signalés en rouge

 

Partie 1

 

 

e-------0---------------------------------------------------------------------------------0--0--2--3--2--0---------------------------

B----------5p3---------3--0----------------------------------------------------------0-----------------------3---------------------

G--3/------------4h6---------2---------------2------------------------0------0--2------------------------------------------------------

D---------------------------------0--4p2p0------4p2p0--2p0--2p4------4------------------------------------------

A------------------------------5---------------5-----------------------------------------------------------2---------------------

E--0-------------0-----------------------------------------0------------0-------------3----2------0--------------------------------

 

e-------0--------------------------------------------------------------------------------0--0------0------------------------------

B----------5p3---------3--0---------------------------------------------------------0---------3--0-----------------------------------

G--3/------------4h6---------2---------------2-----------------------0------0--2----------------0----------------------------------------

D---------------------------------0--4p2p0------4p2p0--2p0-2h4------4----------------------------------------------------------

A------------------------------5---------------5--------------------------------------------------------------------------------

E---0------------0-------------------------------------------0---------0-------------3------------0--------------------------------

 

Partie 2

 

e------------------5--7------0------------------------5-----------------------5--7-----0------------------------0-------------------------

B--5h7--8--7h8---------8------8--8p7p5--7--8------7------7--8--7p8---------8-----8--8p7p5-----7---0------------------------

G---------------------------------------------------------------7-------------------------------------------7------0------------------

D------------------------------------0-----------------0-----------------------------------------0----------------------------------

A---------------------7------------------------------------------------------------7----------------------------------------------

E---------0-----------------------------------------------------------0-------------------------------------------0----------------

 

e-------------------5--7-----0-----------------------5------------------5------0-----0---------0-----0--2--2h3p2--0-----------------

B--5h7--8--7h8---------8------8--8p7p5--7--8------7------7--8-----8-----7------7---------3---------------------3------------------

G-------------------------------------------------------------7--------------------------------7-------------------------------------

D-------------------------------------0---------------0------------------------------------------------------------------------

A----------------------7--------------------------------------------------------------------------3-------------3--------------------

E---------0-----------------------------------------------------------0---------7-----------------------------------------------

 

 

 

 

On enchaine les 2 parties, et on reprend une 2ème fois la 1ère partie ensuite.

 

Vous constatez que ce morceau comporte de nombreuses notes liées (hammer on et pull off), il est donc utile de savoir ce que c'est et de savoir les jouer tongue.gifhttp://www.tabs4acou...off-vt1476.html

Ce morceau demande tout de même un certain niveau en gratte, d'autant plus qu'il est à jouer avec un rythme plutot rapide.

 

Conseils pour ce morceau:

- Les hammer on et pull off apportent une grande fluidité au morceau, il faut donc s'appliquer sur ceux ci. Cependant, ils ne doivent pas changer le rythme

- A l'inverse, les triolets apportent des bref changement de rythme, il faut donc également les privilégier.

Lien à poster
Partager sur d’autres sites

J'ai déjà pas mal de morceaux a bosser niveau basse là, alors quand je prends ma guitare c'est pour faire des choses simple, si un jour j'ai le temps pourquoi pas cependant :)

 

Postera tu une vidéo de toi en train d'executer ce morceau ?

Lien à poster
Partager sur d’autres sites

hum à l'occasion pourquoi pas ;)

Mais j'ai pas le matos ici, donc ça ne sera que les week end, et je sais même pas si je pourrais le week end prochain :x:

Enfin sinon peut être que mon frangin peut me prêter un APN :hum: A voir!

Lien à poster
Partager sur d’autres sites
  • 2 years later...

Veuillez vous connecter pour commenter

Vous pourrez laisser un commentaire après vous êtes connecté.



Connectez-vous maintenant
×
×
  • Créer...