Aller au contenu

[Traditionnel] Joyeux anniversaire


Messages recommandés

Joyeux anniversaiiiiiiiiiiiire!!!

 

e||----------------------------5------------10-7----------8-8-7-----5-----
B||------5-----8-7-------5--------8----------------8-7-5---------8-----8--
G||-7-7-----7------7-7------7---------7-7---------------------------------
D||-----------------------------------------------------------------------
A||-----------------------------------------------------------------------
E||-----------------------------------------------------------------------

 

:guitare:

 

Béhèf

Lien à poster
Partager sur d’autres sites
  • 8 months later...

voici la partition de joyeux anniversaire :

 

sol (grave) - sol (grave) - la - sol (grave) - do - si - sol (grave) - sol (grave) - la - sol (grave) - ré - do - sol (grave) - sol (grave) - sol (aigu) - mi - do - si - la - fa - fa - mi - do - ré - do. :top:

Lien à poster
Partager sur d’autres sites
  • 1 year later...

Joyeux anniversaiiiiiiiiiiiire!!!

 

e||----------------------------5------------10-7----------8-8-7-----5-----
B||------5-----8-7-------5--------8----------------8-7-5---------8-----8--
G||-7-7-----7------7-7------7---------7-7---------------------------------
D||-----------------------------------------------------------------------
A||-----------------------------------------------------------------------
E||-----------------------------------------------------------------------

 

:guitare:

 

Béhèf

 

 

merci c'est nickel

Lien à poster
Partager sur d’autres sites

Veuillez vous connecter pour commenter

Vous pourrez laisser un commentaire après vous êtes connecté.



Connectez-vous maintenant
×
×
  • Créer...