Aller au contenu

Une chance au grattage, une chance au déchiffrage.


Messages recommandés

Allez, je tente de lancer un nouveau jeu.

 

Le principe est simple, on pose dans le fil un bout de partoche ou de tablature guitare (ben oui, on est sur un forum guitare) et on doit deviner le morceau. Le vainqueur est déclaré par celui qui a posté la partoche ou la tablature. Le jeu est ensuite relancé par ce vainqueur avec un nouveau morceau proposé.

 

Chacun est libre de la méthode pour déchiffre... Guitare, Logiciel, mémoire...

 

La tablature doit avoir trois critères obligatoires :

- indiquer la tempo,

- minimum 2 mesures successives,

- type de son guitare.

 

Allez, je lance la première !

post-76544-0-39899500-1397221894_thumb.jpg

Modifié par Photoff
Lien à poster
Partager sur d’autres sites
  • Réponses 995
  • Created
  • Dernière réponse

Top Posters In This Topic

Top Posters In This Topic

Posted Images

a vous de jouer !

 

Edit: la tab en piece jointe est fausse en fait...

 

E ----0---------------------------------------------------------------------------------------------

B ---1---------1---------3---------1--------3-------1--------1-------0------------------------------

G --2--------2--------0---------0--------2-------2---------2-------1--------------------------------

D -2-------2-------2---------2--------0--------0--------3--------2----------------------------------

A 0------0------------------------------------------------------------------------------------------

E ---------------3---------3--------2--------2--------1--------0------------------------------------

 

 

E ------3--------0--------3--------0----------------------------------------------------------------

B -----------------------------------------3-------1-------1-------0--------------------------------

G ----2-------2--------0--------0--------2-------2-------2-------1----------------------------------

D --2-------2--------2--------2--------0-------0-------3-------2------------------------------------

A 0-------0-----------------------------------------------------------------------------------------

E -----------------3--------3--------2-------2-------1-------0--------------------------------------

post-14005-0-63821400-1397227826_thumb.png

Modifié par Villa
Lien à poster
Partager sur d’autres sites

Ah merde...je peux pas proposer de tab j ai rien pour l écrire :D

Je peux donner mon tour à quelqu'un de mon choix ? (Photoff toi qui a créé le jeu...tu me permets ?)

 

Edit: finalement j ai pris une photo avec mon iPhone

Bon alors j espère que ça sera lisible et pas trop dur

post-4510-0-83887100-1397247583_thumb.jpg

Lien à poster
Partager sur d’autres sites

Veuillez vous connecter pour commenter

Vous pourrez laisser un commentaire après vous êtes connecté.



Connectez-vous maintenant
×
×
  • Créer...