Aller au contenu
koyuki

une tite de plus

Messages recommandés

c'est une rythmique (c'est bien comme sa qu'on dit ? ) que j'ai faites avec ma folk .la qualité n'est peut etre pas tres bonne c'est en partie a cause de mon micro rosace qui n'est pas top .

 

http://www.yourfilehost.com/media.php?cat=audio&file=4__.mp3

 

toutes vos remarque sont bonne , je prefere un c'est nul qu'un c'est bien ( moi bizarre ? :hum: ) et merci d'esseyer de dire le pourquoi de votre decision .

 

merci :top:


Beat on the brat

Beat on the brat

Beat on the brat with a baseball bat

Oh yeah, oh yeah, uh-oh.

Partager ce message


Lien à poster
Partager sur d’autres sites

cool je trouve ca génial :D)


Dans le futu, est-ce qu'il y a un temps? un instant ? Non ! dans le futur il n'y a pas de temps.

J.C Van damme

Partager ce message


Lien à poster
Partager sur d’autres sites

Felixkorn666 montre nous ce que sa donne :top: (il y a de la place dans cette partie du forum ^^ )


Beat on the brat

Beat on the brat

Beat on the brat with a baseball bat

Oh yeah, oh yeah, uh-oh.

Partager ce message


Lien à poster
Partager sur d’autres sites

69.gif super :top: je ne dirait que 3 mots de plus....

 

 

Lache la tabs :D

 

p.s: j'aime bien le son de ta guitare


ex "Guitar Hero" :'(

Sex, drugs and rock n'roll... enlevez la drogue et vous aurez plus de temps pour les deux autres

Partager ce message


Lien à poster
Partager sur d’autres sites

Hey c'est vraiment pas mal comme compos ^^! Juste ( jpeux me permettre une toute légère critique :x ? ), changer un peu de rythme de temps en temps, parce que ça fait "plat" sur deux minutes toujours le meme rythme, genre acclérer un peu, coller quelques aller retour en ghost note pi repartir sur un rythme plus soutenu ( jsais pas si tu vois ou jveux en venir xD )! Mais franchement c'est bien continue :top::guitare:


C'est contre la banalité de notre avenir que nous nous sommes révoltés

Partager ce message


Lien à poster
Partager sur d’autres sites

raaaaaaaaaaaaah masi tu te prend pour qui pour dire sa :D je dec , c'est vrai que c'est un peu plat , il ne reste plus que la batterie , la guitare lead et un basse . C'est quoi des gosht note ??? tu veu dire des death note ? En totu cas merci pour ta critique :top:

 

N'hesiter pas pour vos critique j'attend que sa , c'est en faissant des erreur qu'on apprend (mais il faut les connaitre ) .

 

pour la tab c'est assez simple c'est que des powers chord ( des accords de puissances ) .On va classer sa en plusieurs phrase :

 

La phrase A : (le machin que je fait plein de fois au depart ^^ )

 

----------------------------------3---3-X---5---5----0----------------------------------------------------------------
-----5---5-x--5---5----5-5-5-5--0-5---5-X---7---7----0----------------------------------------------------------------
-----7---7-x--7---7----7-7-7-7--0-5---5-X---7---7----0----------------------------------------------------------------
-----7---7-x--7---7----7-7-7-7--0--------------------------------------------------------------------------------------
----------------------------------------------------------------------------------------------------------------------------
----------------------------------------------------------------------------------------------------------------------------

 

les endroits où je gratte en 0 c'est comme une séparation (je les gratte quand je fait mon chemin jusqu'a l'autre accord )

 

Phrase B ( 1er changement "en aïgue" )

 

--------------------------------------------------------------------------------------------------------------------------------------
------5---5-X---10---10--10-10-10-10---0--5---5-X-----8------8---8--8--8--8---0---5---5-X---10---10--10-10-10-10----0--5--5--5--5--5--
------7---7-X---12---12--12-12-12-12---0--7---7-X----10-----10--10-10-10-10---0---7---7-X---12---12--12-12-12-12----0--7--7--7--7--7--
------7---7-X---12---12--12-12-12-12---0--7---7-X----10-----10--10-10-10-10---0---7---7-X---12---12--12-12-12-12----0--7--7--7--7--7--
--------------------------------------------------------------------------------------------------------------------------------------
--------------------------------------------------------------------------------------------------------------------------------------

 

 

-On refait la phrase A 2 fois

 

 

et on passe a la phrase C ( 2 eme changement "en grave" ( c'est le meme que le B mais en plus grave ) )

 

---------------8-----8---8--8--8--8--0--------------6---6--6-6-6-6---0-------------8---8----8--8--8--8----6--6--6--6--5--------
------5--5-X---10---10--10-10-10-10--0-----5--5-X---8---8--8-8-8-8---0---7--7-X---10---10--10-10-10-10----8--8--8--8--7------
------7--7-X---10---10--10-10-10-10--0-----7--7-X---8---8--8-8-8-8---0---7--7-X---10---10--10-10-10-10----8--8--8--8--7----
------7--7-X-------------------------------7--7-X------------------------7--7-X------------------------------------------------------
--------------------------------------------------------------------------------------------------------------------------------------
--------------------------------------------------------------------------------------------------------------------------------------

 

 

-Et maintenant La phrase A' ( on change le sens au lieu de descendre de 3 vers 5 on va de 5 vers 3 regarder )

 

 


----------------------------------5---5-X---3---3----0----------------------------------------------------------------
-----5---5-x--5---5----5-5-5-5--0-7---7-X---5---5----0----------------------------------------------------------------
-----7---7-x--7---7----7-7-7-7--0-7---7-X---5---5----0----------------------------------------------------------------
-----7---7-x--7---7----7-7-7-7--0--------------------------------------------------------------------------------------
----------------------------------------------------------------------------------------------------------------------------
----------------------------------------------------------------------------------------------------------------------------

 

C'est du approximatif car j'arrive jamais a faire des tablatures :x: .Ce que j'ai fait ce n'est qu'un modele ce qu'il faut savoir c'est qu'il y a que quelques accord :

 

 

-------/--3--/--5--/-------/---------/--8--/--6---/-------------------------------------------------------------------------------------------------

----5--/--5--/--7--/--10--/--8----/--10-/--10--/--------------------------------------------------------------------------------------------------------

----7--/--5--/--7--/--12--/--10--/--10-/--10--/-------------------------------------------------------------------------------------------------------

----7--/-----/------/--12--/--10--/------/-------/----------------------------------------------------------------------------------------------

-------/-----/------/-------/-------/------/-------/-----------------------------------------------------------------------------------------

-------/-----/------/-------/-------/------/-------/-----------------------------------------------------------------------------------------

 

vos doigts garde toujours la meme position , alors regardez le debut de tab pou vous faire une idée et apres avec la musque esseyé de retrouver sur votre guitare quelle accord est joué ( sa pourra vous faire travailler l'oreille et aussi la logique ^^ ) .

 

Désoler de ne pas avoir fini la tab et de ne pas avoir reussi a la faire bien mais faites ce petit "exo" .

 

PS : si vous voulez le fichier en mp3 prenez mon msn ;)


Beat on the brat

Beat on the brat

Beat on the brat with a baseball bat

Oh yeah, oh yeah, uh-oh.

Partager ce message


Lien à poster
Partager sur d’autres sites

c'est un bon début, prends le temps de le fignoler, une impro :rolleyes: de partoch' c'est comme le bon vin ça s'améliore en vieillissant !


la petie Mir@belle.

Partager ce message


Lien à poster
Partager sur d’autres sites

Oui je veux bien dire des deads notes! ^_^

N'hesiter pas pour vos critique j'attend que sa , c'est en faissant des erreur qu'on apprend (mais il faut les connaitre ) .

 

Bah je dirai pas que c'est une erreur le fait que ça sonne plat, ça peut être bien aussi, faut voir le style que tu veux developper pour la chanson ( ensuite ma critique c'était plutot un avis personnel, ptetre que d'autre personne trouverai mon idée totalement absurde xD )! Mais de rien si ça t'as plus! Si tu veux je peux te faire la basse si tu m'envois ça sous guitar pro ou si tu m'envois ton enregistrement :p


C'est contre la banalité de notre avenir que nous nous sommes révoltés

Partager ce message


Lien à poster
Partager sur d’autres sites

pas mal!! je dirais plutot bien! mais c bizard on dirais que tu joue sur une electrique en son clair! et tu dit que c avec une folk!!! :hum: ! ou alors c un reglage part apport avec ton amplie!! sinon bien joué!!a++

Partager ce message


Lien à poster
Partager sur d’autres sites

oui quand je le réécoute moi aussi sa me fait pensé a une electrique en clean mais en faites non c'est bien fait avec ma folk et mon micro rosace mais comme le son est un peu faible quand j'ai enregistrer sa donne cela .


Beat on the brat

Beat on the brat

Beat on the brat with a baseball bat

Oh yeah, oh yeah, uh-oh.

Partager ce message


Lien à poster
Partager sur d’autres sites

×
×
  • Créer...