Aller au contenu

[Vampire Weekend] A punk


Messages recommandés

Voilà !

 

e|--9-9--1212--77-1010-----------|
B|--1010-1010--88-8-8----7777777-|
G|-----------------------7777777-|
D|-------------------------------|
A|-------------------------------|
E|-------------------------------|x3
                                                     } do these 2 bars THREE(3) times
e|--5555--5555--2222--|
B|--7777--5555--3333--|
G|--------------------|
D|--------------------|
A|--------------------|
E|--------------------|x2                             

...STOP! Take a 26 second Break and let the drums and Bass do their thing...

e|--9-9--1212--77-1010-----------|
B|--1010-1010--88-8-8----7777777-|
G|-----------------------7777777-|
D|-------------------------------|
A|-------------------------------|
E|-------------------------------|x3
                                                     } do these 2 bars TWO(2) times
e|--5555--5555--2222--|
B|--7777--5555--3333--|
G|--------------------|
D|--------------------|
A|--------------------|
E|--------------------|x2

 

Source, http://www.911tabs.com/link/?5576505

 

J'adore cette chanson ^^ en plus pas trop dure à jouer ;)

Lien à poster
Partager sur d’autres sites

bn bn il va falloir travailler mais on y arrivera... après tout faut bien passer à des trucs plus difficiles parfois :p

Juste une question, les doubles stops collés se jouent en aller-retour ou faut deux allers, ou alors faut même pas faire au médiators ? xD

Lien à poster
Partager sur d’autres sites

C'est pas un xxxx77 Mais un xxx77x, sinon c'est vrai que ça sonne bien avec xxxx32 vu que c'est exactement la même note ;)

 

La version acoustique est sympa mais je ne vois pas bien le manche donc pas possible pour moi de retranscrire désolé.

Lien à poster
Partager sur d’autres sites

Pas de problème je l'ai trouvée ;) (elle était indiquée ds les infos en fait en fait u_u)

 

Tuning:Capo on fret 2

This is my version of A-punk. All chords are relative to the capo.

Intro and Verses:
   G     F     C
e|---------------------------------------------------------------------------|
B|----33----11--11111111-----------------------------------------------------|
G|--4444--2222--00000000-----------------------------------------------------|
D|--5555--3333--22222222-----------------------------------------------------|
A|--------------33333333-----------------------------------------------------|
E|---------------------------------------------------------------------------|x3
   C	  G     C
e|---------------------------------------------------------------------------|
B|--------------1111---------------------------------------------------------|
G|--0000--0000--0000---------------------------------------------------------|
D|--2222--0000--2222---------------------------------------------------------|
A|--------------3333---------------------------------------------------------|
E|---------------------------------------------------------------------------|x2


Chorus A:
Strum these chords as long as you need to.
e|--0--1--3--0-5---3--1--3--0------------------------------------------------|
B|--1--1--1--1-6---1--1--1--1------------------------------------------------|
G|--0--0--0--0-0---0--0--0--0------------------------------------------------|
D|---------------------------------------------------------------------------|
A|---------------------------------------------------------------------------|
E|---------------------------------------------------------------------------|x3

e|--0--1--3--0--5------------------------------------------------------------|
B|--1--1--1--1--6------------------------------------------------------------|
G|--0--0--0--0--0------------------------------------------------------------|
D|---------------------------------------------------------------------------|
A|---------------------------------------------------------------------------|
E|---------------------------------------------------------------------------|x1

Then the bassy part.
e|---------------------------------------------------------------------------|
B|---------------------------------------------------------------------------|
G|---------------------------------------------------------------------------|
D|-------------232-----------------------------------------------------------|
A|----2----0--3-------2----0-3-----------------------------------------------|
E|--33-3-11-1-------33-3-11-1------------------------------------------------|x1

Chorus B:
Strum these chords as long as you need to.
e|--0--1--3--0-5---3--1--3--0------------------------------------------------|
B|--1--1--1--1-6---1--1--1--1------------------------------------------------|
G|--0--0--0--0-0---0--0--0--0------------------------------------------------|
D|---------------------------------------------------------------------------|
A|---------------------------------------------------------------------------|
E|---------------------------------------------------------------------------|x5

e|--0--1--3--0--5------------------------------------------------------------|
B|--1--1--1--1--6------------------------------------------------------------|
G|--0--0--0--0--0------------------------------------------------------------|
D|---------------------------------------------------------------------------|
A|---------------------------------------------------------------------------|
E|---------------------------------------------------------------------------|x1

Then the bassy part.
e|---------------------------------------------------------------------------|
B|---------------------------------------------------------------------------|
G|---------------------------------------------------------------------------|
D|-------------232-----------------------------------------------------------|
A|----2----0--3-------2----0-3-----------------------------------------------|
E|--33-3-11-1-------33-3-11-1------------------------------------------------|x1


Progression of the song:
Intro x1
verse x2
Chorus A
verse x2
Chorus B

 

Source: http://www.ultimate-guitar.com/tabs/v/vampire_weekend/a-punk_acoustic_tab.htm

Lien à poster
Partager sur d’autres sites

Veuillez vous connecter pour commenter

Vous pourrez laisser un commentaire après vous êtes connecté.



Connectez-vous maintenant
×
×
  • Créer...