Aller au contenu
  • 0

[Zaho] Je te promets


Question

bonjour les guitariste

 

j'aimerais savoir comment zaho joue "je te promets"sur youtube et daily en live dans l'emission t'empeche tout le monde de dormir malheureusement je ne peux pas mettre un lien car je suis tout nouveau sur le site(pas encore le droit)

je connais deja les accords et l'intro mais je ne vois pas quelle cordes jouer

si une personne pouvais m'aider merci beaucoup

j'aimerais pouvoir la jouer a ma femme demain lol :p

bye

Lien à poster
Partager sur d’autres sites

14 réponses à cette question

Messages recommandés

  • 0

Comme ça, à première vue, elle gratte :

 

=> Fondamentale (basse) avec le pouce sur les cordes de Mi, de La ou de Ré selon l'accord joué.

 

=> Cordes de Sol avec l'index, de Si avec le majeur et de Mi avec l'annulaire, puis retour sur les cordes de Sol et de Si avec les doigts correspondant.

 

Lien à poster
Partager sur d’autres sites
  • 0

J'ai découvert cette chanson par ton post biaggi76 et j'ai eu un vrai coup de coeur, merci :love:

Ma guitare est pour le moment injouable :calmos: mais je vais me pencher dessus pour voir.

Bien sûr si quelqu'un peut fournir une tablature autre que am dm am pour le couplet et dm am g pour le refrain ça serait pas mal ^^

 

sinon y'a ça mais c'est pour l'intro seulement ?

 

________________________0h1_______________________________________
_______0h1__________3__________________0h1h0______________________
___2______________________________2_____________2_________________
_____________0_____________________________________2______________
0____________________________0___________________________________
____________________________________ _____________________________

Lien à poster
Partager sur d’autres sites
  • 0

La m :

e_________________________0_________________________

B___________________1_____________________1_________

G____________2____________________2_________________

D___________________________________________________

A_____0_____________________________________________

E___________________________________________________

 

 

Ré m :

e__________________________1_________________________

B____________________3______________________3________

G______________2___________________2_________________

D_____0______________________________________________

A____________________________________________________

E____________________________________________________

 

 

Sol :

e____________________________3_________________________

B_______________________3______________________3_______

G_________________0___________________0________________

D______________________________________________________

A______________________________________________________

E________3_____________________________________________[/code]

 

 

Voilà, pas la tab, mais ce qu'elle arpège sur chaque accord, sur une mesure - 1 noire (1° note), 1 triolet (les 3 notes suivantes), 1 croche (5° note), 1 croche ( 6° note) - , je crois.

Edit : correction => Rém corde e => 1 (et non pas 0) :x:

Lien à poster
Partager sur d’autres sites
  • 0

Content que ça vous fasse plaisir!

 

Malgré tout, je pense que vous avez remarqué que pour le début de la partie chantée, elle répète les accords de l'intro.

Puis à 2 minutes environ du début, il me semble qu'elle change de tonalité et visiblement, elle utilise d'autres accords. J'ai regardé quelques tabs sur notre copain Google, effectivement elles donnent toutes les mêmes accords que vous. Donc ils ne donnent pas tous les accords, ce qui est fréquent pour les nouveaux morceaux à succès. C'est un peu normal, ils sont là pour gagner leur vie, déjà les téléchargements illégaux leur bouffent la barraque alors si les gratteux s'y mettent ça va les énerver encore plus...

 

Désolé de vous avoir sappé le moral. :(

Lien à poster
Partager sur d’autres sites
  • 0

De retour avec la tablature :)

 

F7: [x x 3 2 1 0] 

[intro] ================================================================
: 						
E ---------0h1--------------------0h1-----------------------------------
B --0h1---3------0h1h0------0h1--3------0h1-----------------------------
G -2------------2-----2----2-----------2---2----------------------------
D -------0-------------2--------0-----0---------------------------------
A 0------------0----------0---------------------------------------------
E ----------------------------------------------------------------------
Am / Dm / Am / Am / Dm / Am		

[Couplet 1] ============================================================
: T'aimerais que j'te dise, que je t'aimerai toute ma Vie
E ---0------1------0------0---
B --1--1---3--3---1--2---1--1-
G -2--2-2-2--2-2-2--2-2-2--2-2
D -------0--------------------
A 0-------------0------0------
E ----------------------------
Am / Dm / Am	Dm

: T'aimerais que j'te promette, toutes mes nuits Jusqu'à l'infini
E ---0------0------0------3---
B --1--1---1--1---1--1---3--3-
G -2--2-2-2--2-2-0--0-0-0--0-0
D -------3--------------------
A 0-------------3-------------
E ---------------------3------
Am / F7 / C / G

: T'aimerai que j'te suive, à jamais sans faire de bruit
E ---0------1------0-----x----
B --1--1---3--3---1--1---x----
G -2--2-2-2--2-2-2--2-0--x----
D -------0---------------x----
A 0-------------0------0-x----
E -----------------------x----
Am / Dm / Am	

: Et que je comprenne tous ceci sans que tu le dises.
E ----0------0----------------
B ---1--1---0--0---1-1-0-1----
G --2--2-2-1--1-1-2-2-2-2-----
D ----------------------------
A -0-------------0------------
E --------0-------------------
Am / E / Am		

[Refrain] ==============================================================
: Et je ne pourrais te dire, ce que je ne sais pas
E ---1--------------3------3--------------------------------------------
B --3--3h5---5-----3--3---3--3------------------------------------------
G -2--2-----5--5--0--0-0-0--0-3-----------------------------------------
D 0--------5--5-5-------------------------------------------------------
A --------3-------------------------------------------------------------
E ---------------3------3-----------------------------------------------
Dm / C / G / G

: Et je ne pourrais te donner, ce que je n'ai pas
E ---1--0---0------3------3---------------------------------------------
B --3--3---1--1---3--3---3--3-------------------------------------------
G -2--2---0--0-0-0--0-0-0--0-3------------------------------------------
D 0---------------------------------------------------------------------
A -------3--------------------------------------------------------------
E --------------3------3------------------------------------------------
Dm / C / G / G

: Et je ne pourrais te fuir, même si tout nous sépare
E ---1--0---0------3-----x----------------------------------------------
B --3--3---1--1---3--3---x----------------------------------------------
G -2--2---0--0-0-0--0-0--x----------------------------------------------
D 0----------------------x----------------------------------------------
A -------3---------------x----------------------------------------------
E --------------3------3-x----------------------------------------------
Dm / C / G

: TouT ce que je te promet c'est un nouveau départ
E ---1------0-----------------------------------------------------------
B --3--3---0--0---1-1-0-1-----------------------------------------------
G -2--2-2-1--1-1-2-2-2-2------------------------------------------------
D 0---------------------------------------------------------------------
A --------------0-------------------------------------------------------
E -------0--------------------------------------------------------------
Dm / E / Am

 

source : abc-tabs.com

Lien à poster
Partager sur d’autres sites

Veuillez vous connecter pour commenter

Vous pourrez laisser un commentaire après vous êtes connecté.



Connectez-vous maintenant
×
×
  • Créer...