Aller au contenu

[Led Zeppelin] Rock'n'roll


Messages recommandés

voilà c'est un début de chanson qu'un pote m'as fais écouté et que je trouve sympa a jouer donc je vous en fait profiter !!!

 

 

 



---------------------------------------------
---------------------------------------------
---------------------------------------------
--2-2------2-2-4-2-5-2-4-2-2-2-4-2-----                        2 fois
--0-0-3-4-0-0-0-0-0-0-0-0-0-0-0-0------
---------------------------------------------



---------------------------------------------
---------------------------------------------
--2-2------2-2-4-2-5-2-4-2-2-2-4-2-----  
--0-0-3-4-0-0-0-0-0-0-0-0-0-0-0-0------
---------------------------------------------
---------------------------------------------



---------------------------------------------
---------------------------------------------
---------------------------------------------
--2-2------2-2-4-2-5-2-4-2-2-2-4-2----- 
--0-0-3-4-0-0-0-0-0-0-0-0-0-0-0-0------
---------------------------------------------



----------------------------------------------
----------------------------------------------
----------------------------------------------
---------------------------------------------
--2-2------2-2-4-2-5-2-4-2-2-2-4-2----- 
--0-0-3-4-0-0-0-0-0-0-0-0-0-0-0-0------




---------------------------------------------
---------------------------------------------
---------------------------------------------
--2-2------2-2-4-2-5-2-4-2-2-2-4-2----- 
--0-0-3-4-0-0-0-0-0-0-0-0-0-0-0-0------
---------------------------------------------

 

 

 

bon et c'est tout en croche

 

 

c'est assez simple et j'adore cette musique

 

voilà !

Lien à poster
Partager sur d’autres sites

OK car pour U2 - With or without you, il y a aussi uniquement ces deux cordes qui sont joués et je me demandais comment les jouer.

Ce n'est pas simple quand même d'enchaîner les 2 cordes sans toucher les autres. Va falloir que je m'entraîne... :training::guitare::top:

Lien à poster
Partager sur d’autres sites

sans vouloir être mauvaise langue je la jouais en concert et même si j'ai pas de gratte sous la main en ce moment ça m'étonnerai que ce soit la tab exacte...

 

en tout cas merci pour l'idée, elle est géniale cette chanson

Lien à poster
Partager sur d’autres sites
  • 4 years later...

sans vouloir être mauvaise langue je la jouais en concert et même si j'ai pas de gratte sous la main en ce moment ça m'étonnerai que ce soit la tab exacte...

 

en tout cas merci pour l'idée, elle est géniale cette chanson

 

Salut,

 

c'est juste l'intro et il manque pour faire top un 1/2 bend sur le sol corde de mi grave (case 3)...

 

Mais ce morceau, c'est tellement mythique......

Lien à poster
Partager sur d’autres sites

Veuillez vous connecter pour commenter

Vous pourrez laisser un commentaire après vous êtes connecté.



Connectez-vous maintenant
×
×
  • Créer...