Did you know ? We offer a chords chart including more than 1000 choard diagrams with photos !

Sweet Home Alabama tab

Free Sweet home Alabama tab for the acoustic guitar. Learn to play Lynyrd Skynyrd with easy chords for beginners
starSong listed in our famous tablatures
MP3 You must be logged in to listen to Sweet home Alabama in MP3.

Chords (3)

How to read and play chords for beginners


 

Tab

How to read a Tab

You must be logged in to use these tools.
(Auto-scroll, metronome, text size)
Intro:
  D D            Cadd9 Cadd9              G G
|-------------------------------|--------------------------------|
|--------3---------------3------|--------3--3--------------------|
|----------2---------------0----|--------0--0----------------2p0-|
|--0--0------0---------------0--|-------------------0-2p0--------|
|--------------3-0-3------------|--------------0h2--------2------|
|-------------------------------|-3-0-3--------------------------|

  D D            Cadd9 Cadd9              G G 
|-------------------------------|--------------------------------|
|--------3---------------3------|--------3-----------------------|
|----------2---------------0----|--------0--0--2p0-0-4p0--0-5/7--|
|--0--0------0---------------0--|--------------------------------|
|--------------3-0-3------------|--------------------------------|
|-------------------------------|-3-0-3--------------------------|

  D D            Cadd9 Cadd9              G G  
|-------------------------------|--------------------------------|
|--------3---------------3------|--------3--3--------------------|
|----------2---------------0----|--------0--0----------------2p0-|
|--0--0------0---------------0--|-------------------0-2p0--------|
|--------------3-0-3------------|--------------0h2--------2------|
|-------------------------------|-3-0-3--------------------------|

  D D            Cadd9 Cadd9              G G  
|-------------------------------|--------------------------------|
|--------3---------------3------|--------3--3--------------------|
|----------2---------------0----|--------0--0----------------2p0-|
|--0--0------0---------------0--|-------------------0-2p0--------|
|--------------3-0-3------------|--------------0h2--------2------|
|-------------------------------|-3-0-3--------------------------|


1st verse :
D D    Cadd9 Cadd9          G G       G G
 Big wheels keep on turning 
D D         Cadd9 Cadd9          G G       G G
 Carry me home to see my kin 
D D        Cadd9 Cadd9           G G          G G
 Singing songs about the Southland 
D D          Cadd9 Cadd9      G G                      G G
 I miss Alabamy once again and I think its a sin, yes 


|-------------------------------|-----------------------------|
|-------------------------------|-----------------------------|
|---------7---7------------5--5-|------------0--0-------------|
|---------7---7------------5--5-|----------0------------------|   x2
|-7h8h9----------9\7—-5h7-------|-7\0—-0h2--------------------|
|-------------------------------|-------------------3~~~~-----|
2nd verse:
D D                    Cadd9 Cadd9       G G       G G
 Well I heard mister Young sing about her 
D D                  Cadd9 Cadd9        G G       G G
 Well, I heard ole Neil put her down 
D D                  Cadd9 Cadd9         G G       G G
 Well, I hope Neil Young will remember 
D D           Cadd9 Cadd9                G G           G G
 A A Southern man don't need him around anyhow 



Chorus:
D D      Cadd9 Cadd9   G G       G G
 Sweet home Alabama
D           Cadd9       G   G -->  G|-----0-----0-----0-------0-----0---|
 Where the skies are so blue       D|-0h2---0h2---0h2----0h2---0h2------|
D      Cadd9   G       G           A|---------------------------------3-|
 Sweet Home Alabama 
D D          Cadd9 Cadd9          G G       G G
 Lord, I'm coming home to you 


[D D][Cadd9 Cadd9][G G][G G]



3rd verse:
D D         Cadd9 Cadd9              G G       G G
 In Birmingham they love the governor 
D D           Cadd9 Cadd9              G G       G G
 Now we all did what we could do 
D D         Cadd9 Cadd9         G G         G G
 Now Watergate does not bother me 
D D          Cadd9 Cadd9             G G             G G
 Does your conscience bother you? tell the truth 



Chorus:
D D      Cadd9 Cadd9   G G       G G
 Sweet home Alabama
D           Cadd9       G   G -->  G|-----0-----0-----0-------0-----0---|
 Where the skies are so blue       D|-0h2---0h2---0h2----0h2---0h2------|
D      Cadd9   G       G           A|---------------------------------3-|
 Sweet Home Alabama 
D D          Cadd9 Cadd9          G G       G G
 Lord, I'm coming home to you



Solo: [D D][Cadd9 Cadd9][G G][G G] x8


|-------------------------------|-----------------------------|
|-------------------------------|-----------------------------|
|---------7---7------------5--5-|------------0--0-------------|
|---------7---7------------5--5-|----------0------------------|   x2
|-7h8h9----------9\7—-5h7-------|-7\0—-0h2--------------------|
|-------------------------------|-------------------3~~~~-----|

4th verse:
D D           Cadd9 Cadd9               G G       G G
 Now Muscle Shoals has got the Swampers 
D D                Cadd9 Cadd9                    G G       G G
 And they've been known to pick a song or two 
D D          Cadd9 Cadd9      G G       G G
 Lord they get me off so much 
D D            Cadd9 Cadd9                G G                   G G
 They pick me up when I'm feeling blue, now how about you? 



Chorus:
D D      Cadd9 Cadd9   G G       G G
 Sweet home Alabama
D           Cadd9       G   G -->  G|-----0-----0-----0-------0-----0---|
 Where the skies are so blue       D|-0h2---0h2---0h2----0h2---0h2------|
D      Cadd9   G       G           A|---------------------------------3-|
 Sweet Home Alabama 
D D          Cadd9 Cadd9          G G       G G
 Lord, I'm coming home to you
D D      Cadd9 Cadd9   G G       G G
 Sweet home Alabama
D           Cadd9       G   G -->  G|-----0-----0-----0-------0-----0---|
 Where the skies are so blue       D|-0h2---0h2---0h2----0h2---0h2------|
D      Cadd9   G       G           A|---------------------------------3-|
 Sweet Home Alabama 
D D          Cadd9 Cadd9          G G       G G
 Lord, I'm coming home to you



Ending: 
[D D][Cadd9 Cadd9][G G][G G] x5
[D D][Cadd9 Cadd9][G G][G G]>let ring

Video Clip

Member Area
Music is the mediator between the spiritual and the sensual life.
(Ludwig van Beethoven)
W3C
(c) 2000-2014 tabs4acoustic.com
Rescue T4A, kill an ad!