You have an Android smartphone? We have a free and simple to use metronome for you then!
Pinterest T4A Youtube T4A Twitter T4A Facebook T4A

Simple Man tab

Save tablatureAdd to favorites
tablature comments 1 Comments
Print tablaturePrint
Free Simple Man tab for the acoustic guitar. Learn to play Lynyrd Skynyrd with easy chords for beginners
starSong listed in our famous tablatures

Chords (3)

How to read and play chords for beginners

Chord C (x,3,2,0,1,0)
View chord photo
Chord G (3,2,0,0,3,3)
View chord photo
Chord Am (x,0,2,2,1,0)
View chord photo

Strumming patterns

No rhythm pattern for this song yet..

What strumming pattern for this song?
Collection of strumming patterns

 

Tab

How to read a Tab

You must be logged in to use these tools.
(Auto-scroll, metronome, text size)
Intro:
           C C                G G               Am Am                               x4
e|-----||-----------------------------------------------------------3--------||
B|-----||-----------1-------------------------------1---------1-------1------||
G|-----||o----0-------0---0---------0---------2-------2---2-----2-----------o||
D|-----||o------2-------2-----0-------0---0-----2-------2---------2---------o||
A|-0-2-||--3------3-------------2-------2---0-----0---------0-----------0-2--||
E|-----||-------------------3-----3------------------------------------------||


1st verse :
     C C      G G        Am Am      Am Am
Mama told me when I was young 
           C C      G G     Am Am     Am Am
Come sit beside me my only son 
           C C      G G         Am Am     Am Am
And listen closely to what I say 
           C C               G G        Am Am                    Am Am
And if you do this it will help you some sunny day, Oh yeah! 


e|--------------------------------------------------------------|
B|--------------------------------------------------------------|
G|--------------------------------------------------------------|
D|--------------------------------------------------------------|  x2
A|-0-2--3~-----5h7p5\3---------5h7p5\3--------------------------|
E|----------------------3~---------------5~-----0--3--0--3/5~---|


2nd verse :
              C C    G G           Am Am        Am Am
Oh, take your time, Don't live too fast
              C C   G G         Am Am       Am Am
Troubles will come and they will pass
              C C          G G                Am Am      Am Am
You'll find a woman, yeah yeah, you'll find love
             C C                 G G         Am Am        Am Am
And don't forget son, there is someone up above
   

Chorus :
         C C    G G      Am Am    Am Am
And be a simple kind of man
      C C        G G              Am Am         Am Am
Oh be something you love and understand 
          C C    G G      Am Am    Am Am           
Baby be a simple kind of man
              C C              G G         Am Am     Am Am 
Oh, won't you do this for me son if you can? 

[C C][G G][Am Am][Am Am]


3rd verse :
            C C   G G                    Am Am     Am Am
Forget your lust for the rich man's gold 
             C C   G G         Am Am    Am Am
All that you need is in your soul
            C C           G G            Am Am   Am Am
And you can do this, oh baby, if you try 
           C C               G G         Am Am            Am Am     
All that I want for you my son is to be satisfied


Chorus :
         C C    G G      Am Am   Am Am
And be a simple kind of man
      C C        G G              Am Am         Am Am
Oh be something you love and understand 
          C C    G G      Am Am   Am Am           
Baby be a simple kind of man
              C C              G G          Am Am     Am Am 
Oh, won't you do this for me son if you can? 


Solo : [C C][G G][Am Am][Am Am] x5


e|--------------------------------------------------------------|
B|--------------------------------------------------------------|
G|--------------------------------------------------------------|
D|--------------------------------------------------------------|  x2
A|-0-2--3~-----5h7p5\3---------5h7p5\3--------------------------|
E|----------------------3~---------------5~-----0--3--0--3/5~---|


4th verse :
               C C    G G            Am Am       Am Am
Boy don't you worry, you'll find yourself
            C C     G G      Am Am        Am Am
Follow your heart, and nothing else 
            C C           G G            Am Am    Am Am
And you can do this, oh baby, if you try
           C C               G G           Am Am        Am Am 
All that I want for you my son is to be satisfied
 


Chorus :
         C C    G G      Am Am   Am Am
And be a simple kind of man
      C C        G G              Am Am         Am Am
Oh be something you love and understand 
          C C    G G      Am Am   Am Am           
Baby be a simple kind of man
              C C              G G         Am Am   Am Am 
Oh, won't you do this for me son if you can? 
          C C     G G             Am Am   Am Am
Baby be a simple, be a simple man 

(Fade out)

Video Clip

Comments

facebook
Follow us on Facebook!
forum
Need Help? Ask your questions here!
Music expresses that which cannot be said and on which it is impossible to be silent.
(Victor Hugo)