Did you know ? We offer an exclusive scale finder of more than 83.000 guitar scales !
Pinterest T4A Youtube T4A Twitter T4A Facebook T4A

Jesus Doesn't Want Me For A Sunbeam tab

Save tablatureAdd to favorites
tablature comments 0 Comments
Print tablaturePrint
Free Jesus doesn't want me for a sunbeam tab for the acoustic guitar. Learn to play Nirvana with easy chords for beginners
starSong listed in our tabs for beginner

Chords (4)

How to read and play chords for beginners

Chord D (x,x,0,2,3,2)
View chord photo
Chord E (0,2,2,1,0,0)
View chord photo
Chord D/A (x,0,0,2,3,2)
Chord A (x,0,2,2,2,0)
View chord photo

Strumming patterns

No rhythm pattern for this song yet..

What strumming pattern for this song?
Collection of strumming patterns

 

Tab

How to read a Tab

You must be logged in to use these tools.
(Auto-scroll, metronome, text size)
main riff:

    E E                D D                A A     (D/A D/A)  A A 
E|----------4--2-----------------------------------------|
B|--5~--5~--------5--3~--3~--5--3--2---------3-----------|  x2
G|------------------------------------2~~-------2--2~~---|
D|-------------------------------------------------------|
A|-------------------------------------------------------|
E|-------------------------------------------------------|


Intro : main riff x2


1st Verse :
E E           D D               A A      (D/A D/A)   A A
Jesus don’t want me for a sunbeam
E E            D D               A A      (D/A D/A)   A A
Sunbeams are never made like me
E E                  D D               A A           (D/A D/A)   A A
Don’t expect me to cry for all the reasons you have to die
E E          D D                A A        (D/A D/A)    A A
Don’t ever ask your love of me


Chorus :
E E                  D D
Don’t expect me to cry
E E                  D D
Don’t expect me to lie
E E                  D D       A A       (D/A D/A)   A A
Don’t expect me to die for me


2nd Verse :
E E           D D               A A       (D/A D/A)   A A
Jesus don’t want me for a sunbeam
E E            D D               A A       (D/A D/A)   A A
Sunbeams are never made like me
E E                  D D               A A       (D/A D/A)       A A
Don’t expect me to cry for all the reasons you have to die
E E          D D                A A      (D/A D/A)   A A
Don’t ever ask your love of me



Chorus :
E E                  D D
Don’t expect me to cry
E E                  D D
Don’t expect me to lie
E E                  D D       A A      (D/A D/A)   A A
Don’t expect me to die for me


Interlude : main riff x2


Chorus :
E E                  D D
Don’t expect me to cry
E E                  D D
Don’t expect me to lie
E E                  D D       A A       (D/A D/A)   A A
Don’t expect me to die for me



3rd Verse :
E E           D D               A A       (D/A D/A)   A A
Jesus don’t want me for a sunbeam
E E            D D               A A       (D/A D/A)   A A
Sunbeams are never made like me
E E                  D D               A A       (D/A D/A)       A A
Don’t expect me to cry for all the reasons you have to die
E E          D D                A A       (D/A D/A)   A A
Don’t ever ask your love of me


Ending :
    E E                D D                A A     (D/A D/A)  A A 
E|----------4--2-----------------------------------------|
B|--5~--5~--------5--3~--3~--5--3--2---------3-----------|
G|------------------------------------2~~-------2--2~~---|
D|-------------------------------------------------------|
A|-------------------------------------------------------|
E|-------------------------------------------------------|


    E E             D D                   A A       D/A D/A   A A
E|----------4--2-------------------4--5---5~~------------|
B|--5~--5~--------5--3~--3~--3--5--------------3---------|
G|---------------------------------------------------2~~-|
D|-------------------------------------------------------|
A|-------------------------------------------------------|
E|-------------------------------------------------------|

Video Clip

Comments