Did you know ? We offer a chords chart including more than 1000 choard diagrams with photos !
Pinterest T4A Youtube T4A Twitter T4A Facebook T4A

Where Did You Sleep Last Night ? tab

Save tablatureAdd to favorites
tablature comments 0 Comments
Print tablaturePrint
Free Where did you sleep last night ? tab for the acoustic guitar. Learn to play Nirvana with easy chords for beginners

Chords (5)

How to read and play chords for beginners

Chord E5 (0,2,2,x,x,x)
View chord photo
Chord G (3,2,0,0,3,3)
View chord photo
Chord B (x,2,4,4,4,2)
View chord photo
Chord A (x,0,2,2,2,0)
View chord photo

Strumming patterns

No rhythm pattern for this song yet..

What strumming pattern for this song?
Collection of strumming patterns

 

Tab

How to read a Tab

You must be logged in to use these tools.
(Auto-scroll, metronome, text size)
Intro :

   E5 E5         E5 E5           A A          G G          B B          B/F# B/F#      E5 E5
E|----0---0-|----0-------|----0---0-|-3--3---3-|----------|---------|----0---0-|
B|----0---0-|----0-------|-2--2---2-|-3--3---3-|----4---4-|---------|----0---0-|
G|----0-0-0-|----0-------|-2--2-2-2-|-0--0-0-0-|-4--4-4-4-|-4----4--|----0-0-0-|
D|-2----2---|-2----------|-2----2---|-0----0---|-4--4-4-4-|-4----4--|-2----2---|
A|-2----2---|-2----------|-0----0---|-2----2---|-2----2---|-2----2--|-2----2---|
E|-0----0---|-0----0-3-4-|----------|-3----3---|----------|-2----2--|-0----0---|

   E5 E5
E|----0---0-|
B|----0---0-|
G|----0-0-0-|  x2
D|-2----2---|
A|-2----2---|
E|-0----0---|



1st Verse/chorus :
   E5 E5       E5 E5          A A      G G
My girl, my girl, don't lie to me
        B B             B/F# B/F#       E5 E5       E5 E5
Tell me where did you sleep last night
       E5 E5            E5 E5
In the pines, in the pines
          A A              G G
Where the sun don't ever shine
        B B          B/F# B/F#        E5 E5         E5 E5
I would shiver the whole night through


2nd Verse/chorus :
   E5 E5       E5 E5          A A        G G
My girl, my girl, where will you go
    B B               B/F# B/F#      E5 E5       E5 E5
I'm going where the cold wind blows
       E5 E5            E5 E5
In the pines, in the pines
          A A              G G
Where the sun don't ever shine
        B B          B/F# B/F#        E5 E5         E5 E5
I would shiver the whole night through



3rd Verse/chorus :
    E5 E5       E5 E5         A A       G G
Her husband, was a hard working man
      B B      B/F# B/F#      E5 E5       E5 E5
Just about a mile from here
    E5 E5       E5 E5         A A       G G
His head was found in a driving wheel
        B B    B/F# B/F#      E5 E5       E5 E5
But his body never was found

4th Verse/chorus :
   E5 E5       E5 E5          A A      G G
My girl, my girl, don't lie to me
        B B             B/F# B/F#       E5 E5       E5 E5
Tell me where did you sleep last night
       E5 E5            E5 E5
In the pines, in the pines
          A A              G G
Where the sun don't ever shine
        B B          B/F# B/F#        E5 E5         E5 E5
I would shiver the whole night through



   E5 E5         E5 E5           A A          G G          B B          B/F# B/F#      E5 E5
E|----0---0-|----0-------|----0---0-|-3--3---3-|----------|---------|----0---0-|
B|----0---0-|----0-------|-2--2---2-|-3--3---3-|----4---4-|---------|----0---0-|
G|----0-0-0-|----0-------|-2--2-2-2-|-0--0-0-0-|-4--4-4-4-|-4----4--|----0-0-0-|
D|-2----2---|-2----------|-2----2---|-0----0---|-4--4-4-4-|-4----4--|-2----2---|
A|-2----2---|-2----------|-0----0---|-2----2---|-2----2---|-2----2--|-2----2---|
E|-0----0---|-0----0-3-4-|----------|-3----3---|----------|-2----2--|-0----0---|


   E5 E5
E|----0---0-|
B|----0---0-|
G|----0-0-0-|  x2
D|-2----2---|
A|-2----2---|
E|-0----0---|



5th Verse/chorus :
   E5 E5>let ring E5 E5>let ring A A>let ring G G>let ring
My girl,    my girl, where will you   go
    B B>let irng      B/F# B/F#>let ring E5 E5>let irng       E5 E5>let ring
I'm going where the cold wind     blows
       E5 E5>let ring   E5 E5>let ring
In the pines, in the pines
          A A>let ring     G G>let ring
Where the sun don't ever shine
        B B>let ring B/F# B/F#>let ring E5 E5         E5 E5
I would shiver the whole night   through


6th Verse/chorus :
   E5 E5       E5 E5          A A      G G
My girl, my girl, don't lie to me
        B B             B/F# B/F#       E5 E5       E5 E5
Tell me where did you sleep last night
       E5 E5            E5 E5
In the pines, in the pines
          A A              G G
Where the sun don't ever shine
        B B          B/F# B/F#        E5 E5         E5 E5
I would shiver the whole night through


7st Verse/chorus :
   E5 E5       E5 E5          A A       G G
My girl, my girl, where will ya go
    B B               B/F# B/F#      E5 E5       E5 E5
I'm going where the cold wind blows
       E5 E5         E5 E5         A A    G G
In the pines, the pines, the sun, shine
     B B>let ring (B/F# B/F#)       E5 E5         E5 E5    E5 E5  E5 E5   A A   G G  B B   B/F# B/F#   E5 E5  E5 E5>let ring
I'll shiver the  whole night through

Comments

facebook
Follow us on Facebook!
forum
Need Help? Ask your questions here!
A painter paints pictures on canvas. Musicians paint their pictures on silence.
(Leopold Stokowski)