Want to learn the guitar ? Don't miss our guitar lessons for beginners !
Pinterest T4A Youtube T4A Twitter T4A Facebook T4A

Something To Remind You tab

Save tablatureAdd to favorites
tablature comments 0 Comments
Print tablaturePrint
Free Something To Remind You tab for the acoustic guitar. Learn to play Staind with easy chords for beginners

Chords (5)

How to read and play chords for beginners

Chord C (x,3,2,0,1,0)
View chord photo
Chord E (0,2,2,1,0,0)
View chord photo
Chord F (1,3,3,2,1,1)
View chord photo
Chord G (3,2,0,0,3,3)
View chord photo
Chord Am (x,0,2,2,1,0)
View chord photo

Strumming patterns

No rhythm pattern for this song yet..

What strumming pattern for this song?
Collection of strumming patterns

 

Tab

How to read a Tab

You must be logged in to use these tools.
(Auto-scroll, metronome, text size)
Tuning: -0.5

Intro:
    Bm Bm                        A A
Eb|-----------------------------------------------------|
Bb|---12--12--12---12--12--12---10--10--10---10--10--10-|
Ab|-----11--11-------11--11-------9---9--------9---9----|
Db|-9------------9------------7------------7------------|
Ab|-----------------------------------------------------|
Eb|-----------------------------------------------------|

    G G                         F# F#
Eb|-----------------------------------------------------|
Bb|---8---8---8----8---8---8----5---5---5----7--5-------|
Ab|-----7---7--------7---7--------6---6------------7--6-|
Db|-5------------5------------4-------------------------|
Ab|-----------------------------------------------------|
Eb|-----------------------------------------------------|


Verse #1:
        Bm Bm       A A
So this is it, I say goodbye
        G G                          F# F#
To this chapter of my ever-changing life
            Bm Bm             A A
And there's mistakes, the path is long
        G G                                F# F#
And I'm sure I'll answer for them when I'm gone


Pre-chorus:
G G                                 D D
 So when the day comes in the sun won't touch my face
Em Em                                    F# F#                     F# F#>let ring
Tell the ones who cared enough that I finally left this place____


Chorus:
             Bm Bm              A A
It's been so cold, look at my face
         G G                            A A
All the stories it will tell I can't erase
            Bm Bm              A A
The road is long, just one more song
         G G                              A A  -    G G - > let ring
A A little something to remind you when I'm gone, when I'm gone


[Bm Bm][A A][G G][F# F#]



Verse #2:
         Bm Bm            A A
The road to hell along the way
   G G                               F# F#
Is paved with good intentions so they say
           Bm Bm            A A
And some believe that no good deed
          G G                           F# F#
That go unpunished in the end or so it seems


Pre-chorus:
G G                                 D D
 So when the day comes in the sun won't touch my face
Em Em                                    F# F#                     F# F#>let ring
Tell the ones who cared enough that I finally left this place____


Chorus:
               Bm Bm              A A
That's been so cold, look at my face
         G G                            A A
All the stories it will tell I can't erase
            Bm Bm              A A
The road is long, just one more song
         G G                              A A  -    G G - > let ring
A A little something to remind you when I'm gone, when I'm gone


Solo:
[Bm Bm][A A][G G][F# F#]
      Bm Bm                     A A 
Eb|----------------------------------------------------------|
Bb|--------------------------------(10)/12-12-12-12\10-10\8--|
Gb|-----------7-9-9^(8)r-7---7~~-----------------------------|
Db|--/9~~--9---------------9---------------------------------|
Ab|----------------------------------------------------------|
Eb|----------------------------------------------------------|

 
      G G                     F# F#
Eb|------------------------9/10-9/10\9----9---9^(10)-9r--------|
Bb|-8/10~---8---7---8------------------12---------------10/12~-|
Gb|------------------------------------------------------------|
Db|------------------------------------------------------------|
Ab|------------------------------------------------------------|
Eb|------------------------------------------------------------|



Verse #3:
        Bm Bm       A A
So this is it, I say goodbye
        G G                           F# F#
To this chapter of my ever-changing life
            Bm Bm         A A
And there's mistakes, the path was long
        G G                              F# F#
And I'm sure I'll answer for them when I'm gone
         Bm Bm>let ring
When I'm gone

Comments

facebook
Follow us on Facebook!
forum
Need Help? Ask your questions here!
Music expresses that which cannot be said and on which it is impossible to be silent.
(Victor Hugo)