Want to learn the guitar ? Don't miss our guitar lessons for beginners !

Hallelujah tab

Free Hallelujah tab for the acoustic guitar. Learn to play Jeff Buckley with easy chords for beginners
starSong listed in our famous tablatures
MP3 You must be logged in to listen to Hallelujah in MP3.

Chords (10)

How to read and play chords for beginners

Chord C (x,3,2,0,1,0)
View chord photo
Chord Csus2 (x,3,0,0,1,3)
View chord photo
Chord Cadd9 (x,3,0,0,1,0)
View chord photo
Chord D (x,x,0,2,3,2)
View chord photo
Chord Em (0,2,2,0,0,0)
View chord photo
Chord Em7 (0,2,2,0,3,0)
View chord photo
Chord G (3,2,0,0,3,3)
View chord photo
Chord B7 (x,2,1,2,0,2)
View chord photo
Chord Em9 (0,2,2,0,3,2)
View chord photo

Strumming patterns

Main : BhbhBhBH
Collection of strumming patterns

 

Tab

How to read a Tab

Stick a Capo on 5

You must be logged in to use these tools.
(Auto-scroll, metronome, text size)
Intro : 
  NC
e|----------|--0---0------|--0--------|-------------|--------------|--0---0------|
B|--0----3--|-------------|--------3--|--0---0------|------0----3--|-------------|
G|----------|--3---3------|-----------|-------------|--------------|--3---3------|
D|----------|-------------|-----------|--2---2------|--------------|----------2--|
A|----------|-------------|-----------|-------------|--------------|-------------|
E|----------|-------------|-----------|-------------|--0-----------|-------------|

|-----------0--------|--------------------|--------------------|--------------------|
|--0--------------3--|--0--------0--------|-----------0-----0--|--------------------|
|-----3--------------|-----0--------0-----|--------0--------0--|--------0--------0--|
|--------2-----2-----|--2-----2--------2--|-----2-----2--2-----|-----2--------2-----|
|--------------------|--------------------|--------------------|--1--------1--------|
|--------------------|--------------------|--0-----------------|--------------------|

|--------------------|--------------------|-------------------|--------------------|
|--------------------|--------------------|-------------------|--------------------|
|--------0--------0--|--------0--------0--|--------0----------|-----3--3-----3--3--|
|-----2--------2-----|-----2--------2-----|-----2----------0--|-----2--2-----2--2--|
|--1--------1--------|--2--------2--------|--2--------2-------|--1--------1--------|
|--------------------|--------------------|-------------------|--------------------|

|--------------------|--------------------|--------------------|--------------------|
|--------------0--0--|--------------------|--------------------|--------1-----1--1--|
|-----3--3-----3--3--|-----0--0--0--0--0--|-----0--0-----0--0--|-----0--0-----0--0--|
|-----2--2-----2--2--|-----2--2-----------|-----1--1-----1--0--|-----2--2-----2--2--|
|--1--------1--------|--2--------2--3--2--|--0--------0--------|--------------------|
|--------------------|--------------------|--------------------|--3--------3--------|

|-----0--0-----0--0--|-----0--0-----0--0--|------2--|--3--3--3--3--------|
|-----1--1-----1--1--|-----1--1-----1--1--|------3--|--3--3--3--3--------|
|-----0--0-----0--0--|-----0--0-----0--0--|---------|--0--0--0--0--------|
|--------------------|--------------------|---------|--0--0--0--0--0-----|
|--------------------|--------------------|---------|--------------------|
|--3--------3--------|--3--------3--------|--3------|-----------------2--|
                                           x3
||--------------------|--------------------||--------------------|
||-----------3--------|-----------3--------||-----------3--------|
||--------0--0--------|--------0--0--------||--------0--0--------|
||------0-------0-----|-----0--------0-----||------0-------0-----|
||--------------------|--------------------||--------------------|
||--0--------------2--|--3--------------2--||--0--------------2--|

1st verse :
       G G                 Em7 Em7
Well I heard there was a secret chord 
     G G                   Em7 Em7
That David played and it pleased the lord 
    C C                C C  -     D D  -   G G      D D
But you don't really care for music, do ya
        G G                  C C   -       D D   -
well it goes like this the fourth, the fifth
    Em Em                  C C
The minor fall and the major lift 
    D D               B7 B7          Em Em    Em Em -   G G-- D D--
The baffled king composing hallelujah


Chorus :
     C C      C C
Hallelujah
     Em Em     Em Em
Hallelujah
     C C      C C
Hallelujah
     G G     D D 
Hallelu_____jah



Trans :
    G G                    Em7 Em7               X2
||--------------------|--------------------||
||-----------3--------|-----------3--------||
||--------0--0--------|--------0--0--------||
||-----0--------0-----|------0-------0-----||
||--------------------|--------------------||
||--3--------------2--|--0--------------2--||




2nd verse :
      G G                               Em7 Em7
Your faith was strong but you needed proof 
    G G               Em7 Em7
You saw her bathing on the roof 
    C C              C C  -      D D -  G G         D D
Her beauty and the moonlight overthrew ya 
    G G               C C   -   D D   -
She tied you to her kitchen chair 
    Em Em                        C C
She broke your throne and she cut your hair 
    D D                  B7 B7            Em Em    Em Em -   G G-- D D--
And from your lips you drew the hallelujah

Chorus :
     C C      C C
Hallelujah
     Em Em     Em Em
Hallelujah
     C C      C C
Hallelujah
     G G     D D 
Hallelu_____jah


Trans : x1


3rd verse :
G G                   Em7 Em7
 Baby I’ve been here before 
G G                             Em7 Em7
 I've seen this room and I’ve walked this floor (you know)
C C                C C  -   D D  -   G G        D D
 I used to live alone before I knew you 
     G G                     C C  -   D D   -
I've seen your flag on the marble arch 
    Em Em            C C
And love is not a victory march 
       D D               B7 B7          Em Em    Em Em -   G G-- D D--
It's a cold and it's a broken hallelujah

Chorus :
     C C      C C
Hallelujah
     Em Em     Em Em
Hallelujah
     C C      C C
Hallelujah
     G G     D D 
Hallelu_____jah

Trans : x1


4th verse :
      G G                              Em7 Em7
Well there was a time when you let me know 
G G                    Em7 Em7
 What's really going on below 
    C C             C C  -      D D  -  G G      D D
But now you never show that to me do ya 
    G G               C C  -     D D   -
But remember when I moved in you 
    Em Em                C C
And the holy dove was moving too 
    D D               B7 B7            Em Em    Em Em -   G G-- D D--
And every breath we drew was hallelujah

Chorus :
     C C      C C
Hallelujah
     Em Em     Em Em
Hallelujah
     C C      C C
Hallelujah
     G G     D D 
Hallelu_____jah

Bridge :
  Cadd9 Cadd9                                     G7M G7M                   Em9 Em9
|-----------3-----3--|--------------------|-----------2-----2--|-----------0-----0--|
|-----------3-----3--|-----------------3--|-----------3-----3--|-----------3-----3--|
|--------0-----------|--------0--0--------|--------0-----------|--------0-----------|
|-----2--------2-----|-----2--------------|-----4--------4-----|-----4--------4-----|
|--3-----------------|--3--------3--2--0--|--------------------|--------------------|
|--------------------|--------------------|--0-----------------|--0-----------------|
   C C                                           G G                    D D
|------------------0--|---------------------|--------3-----------|--------2-----------|
|------------1-----1--|------------1-----1--|--------3-----------|--------3--------3--|
|------------0--------|------------0-----0--|-----------------0--|--------------2-----|
|---------2-----------|---------2-----------|-----0--------0-----|-----0--------------|
|--2h--3--------3-----|--2h--3--------3-----|--2--------2--------|--0--------0--------|
|---------------------|---------------------|--------------------|--------------------|
   G G                   Em7 Em7                   G G                     Em7 Em7
|-----------3--------|-----------3--------|-----------3--------|-----------3--------|
|-----------3--------|-----------3--------|-----------3--------|-----------3-----0--|
|--------0-----0-----|--------0-----0-----|--------0-----0-----|--------0-----0-----|
|-----0--------------|-----0--------------|-----0--------------|-----0--------------|
|--------------------|--------------------|--------------------|--------------------|
|--3--------------2--|--0--------------2--|--3--------------2--|--0-----------------|
   C C                                 NC                          G G
|---------0------|--3------5------|--5/7------------|--5------|--3--------3---------|
|--1------1------|--1-------------|-----------------|---------|-----3--------3------|
|----------------|---------2------|--2/4------------|--2------|--------4--------4h--|
|----------------|----------------|-----------------|---------|---------------------|
|--3-------------|----------------|-----------------|---------|---------------------|
|----------------|----------------|-----------------|---------|---------------------|
   NC
|--3--------------5-----|-----7--------7-----|--8--8-----8--------|------10----------10------|
|--------5-/7-----------|-----------8--------|--------------8-----|----------10--------------|
|--5--5--------7-----7--/--9-----9--------9--|--------9--------9--/--11----------11------11--|
|-----------------------|--------------------|--------------------|--------------------------|
|-----------------------|--------------------|--------------------|--------------------------|
|-----------------------|--------------------|--------------------|--------------------------|

|---------10------10-------|--------------7--|--12----|--8---------|----|--10---------|----|
|-----10-------------------|---------8-------|--------|-------8----|----|-------10----|----|
|-------------11------11\9-|-----------------|--------|--9---------|----|--11---------|----|
|--------------------------|-----------------|--------|------10----|----|-------12----|----|
|--------------------------|-----------------|--------|------------|----|-------------|----|
|--------------------------|-----------------|--------|------------|----|-------------|----|


5th verse :
      G G                   Em7 Em7
Well maybe there's a god above 
    G G               Em7 Em7
But all I’ve ever learned from love 
    C C                C C  -     D D  -    G G      D D
Was how to shoot somebody who outdrew ya
     G G                  C C  -    D D   -
It's not a cry that you hear at night 
     Em Em                 C C
It's not somebody who's seen the light 
       D D               B7 B7          Em Em    Em Em -   G G-- D D--
It's a cold and it's a broken hallelujah


Chorus :
     C C      C C
Hallelujah
     Em Em     Em Em
Hallelujah
     C C      C C
Hallelujah
     G G  D D 
Hallelujah
     C C      C C
Hallelujah
     Em Em     Em Em
Hallelujah
     C C      C C
Hallelujah
     Em Em    D D
Hallelu...


Outro :
     C C       C C
Hallelujah !
     Em7 Em7     Em Em
Hallelujah !
     C C       C C>let ring
Hallelujah !
     (C C)     G G  (G G)  D D  (D D)  
Hallelu.....
Outro :
   Csus2 Csus2    Em7 Em7 -  G G -   Em Em                           C C            Em Em
|--3~----|--3-----3---|--0-----|--0---0---0---0----|--3-----|---|--0----|------0--|
|--3~----|--3-----3---|--0-----|--0---0---0---0----|--1-----|---|--0----|------0--|
|--0~----|--0-----0---|--0-----|--0---0---0---0----|--0-----|---|--0----|----0----|
|--------|------------|--2-----|--2---4---5---2----|--2-----|---|--2----|--2------|
|--3~----|--2---------|--0-----|-------------------|--3-----|---|--2----|---------|
|--------|------------|--------|-------------------|--------|---|--0----|---------|
.....................................................................jah
      C C      D D     G G>let ring
Hallelu________jah

Video Clip

Member Area
Without music life would be a mistake.
(Nietzsche)
W3C
(c) 2000-2014 tabs4acoustic.com
Rescue T4A, kill an ad!