Did you know ? We offer a chords chart including more than 1000 choard diagrams with photos !
Pinterest T4A Youtube T4A Twitter T4A Facebook T4A

Dream On tab

Save tablatureAdd to favorites
tablature comments 1 Comments
Print tablaturePrint
Free Dream on tab for the acoustic guitar. Learn to play Aerosmith with easy chords for beginners

Chords (14)

How to read and play chords for beginners

Chord C (x,3,2,0,1,0)
View chord photo
Chord Csus4 (x,3,3,0,1,1)
View chord photo
Chord Cm (x,3,5,5,4,3)
View chord photo
Chord C# (x,4,6,6,6,4)
View chord photo
Chord D# (x,6,8,8,8,6)
View chord photo
Chord Fm (1,3,3,1,1,1)
View chord photo
Chord Fsus4 (1,3,3,3,1,1)
View chord photo
Chord A# (x,1,3,3,3,1)
View chord photo
Chord Fm/C (8,8,10,10,9,8)

Strumming patterns

No rhythm pattern for this song yet..

What strumming pattern for this song?
Collection of strumming patterns

 

Tab

How to read a Tab

You must be logged in to use these tools.
(Auto-scroll, metronome, text size)
Intro :
   Fm/C Fm/C        Cm Cm           Dm7b5 Dm7b5/C     Dbmaj7b5 Dbmaj7b5/C
E|-4-----4-----3-----3----|-4-----4-----3-----3----|
B|-6-----6-----4-----4----|-3-----3-----2-----2----|
G|----5-----5-----5-----5-|----5-----5-----5-----5-|
D|------------------------|------------------------|
A|------------------------|------------------------|
E|------------------------|------------------------|

   Fm/C Fm/C        Fsus4/C Fsus4/C       F5/C F5/C
 |-4-----4-----6-----6----|--8-----8------8--------|
 |-6-----6-----6-----6----|--6-----6------6--------|
 |----5-----5-----5-----5-|-----5-----5------------|
 |------------------------|------------------------|
 |------------------------|------------------------|
 |------------------------|------------------------|

   Fm/C Fm/C        Cm Cm           Dm7b5 Dm7b5/C     Dbmaj7b5 Dbmaj7b5/C
 |-4-----4-----3-----3----|--4-----4-----3-----3----|
 |-6-----6-----4-----4----|--3-----3-----2-----2----|
 |----5-----5-----5-----5-|-----5-----5-----5-----5-|
 |------------------------|-------------------------|
 |------------------------|-------------------------|
 |------------------------|-------------------------|

   Fm/C Fm/C        Fsus4/C Fsus4/C       F5/C F5/C     Fsus4/C Fsus4/C
 |-4-----4-----6-----6----|--8-----8----8\-6--4--6--|
 |-6-----6-----6-----6----|--6-----6----6\-6--6--6--|
 |----5-----5-----5-----5-|-----5-----5----5--5-----|
 |------------------------|-------------------------|
 |------------------------|-------------------------|
 |------------------------|-------------------------|

    Fm/Ab Fm/Ab      Fsus4 Fsus4        N.C.
 |--4---6---6---8\-6------|------------------------|
 |--6---6---6---9\-6------|------------------------|
 |------------------------|-6--5--6--5--6--5--6--5-|
 |------------------------|------------------------|
 |------------------------|------------------------|
 |------------------------|------------------------|

 |-----------------------------|----------------------------------|
 |--5h6/8--6-8/9-8-9/11-9h11p9-|-8h9p8\6-6h8p6\4-4h6p4\2-2\1-/13--|
 |-----------------------------|----------------------------------|
 |-----------------------------|----------------------------------|
 |-----------------------------|----------------------------------|
 |-----------------------------|----------------------------------|
1st verse :
Fm/C Fm/C        Cm Cm          Dm7b5 Dm7b5/C     Dbmaj7b5 Dbmaj7b5/C
Every time that I look in the mirror
Fm/C Fm/C            Cm Cm          Dm7b5 Dm7b5/C      Dbmaj7b5 Dbmaj7b5/C
All these lines on my face getting clearer
Fm/C Fm/C Cm Cm            Dm7b5 Dm7b5/C     Dbmaj7b5 Dbmaj7b5/C
The past is  gone
Fm/C Fm/C          Cm Cm  Dm7b5 Dm7b5/C     Dbmaj7b5 Dbmaj7b5/C
It went by like dusk to dawn



Pre-chorus :
Fm/C Fm/C                 Csus4 Csus4
      Isn't that the way  
Fm/C Fm/C                  C C  
Everybody's got their dues in life to pay?


|-3-----3----|-3-----3----|-3-----3----|-3-----3----|
|-2--1--2--1-|-2--1--2--1-|-2--1--2--1-|-2--1--2--1-|
|------------|------------|------------|------------|
|------------|------------|------------|------------|
|------------|------------|------------|------------|
|------------|------------|------------|------------|



Chorus :
Fm Fm        D# D#           C# C#                 D# D#
   I know nobody knows where it comes and where it goes
Fm Fm             D# D#               C# C#                 D# D#          Fm/C Fm/C
   I know it's everybody's sin, you got to lose to know how to win

[Fm/C Fm/C][Cm Cm][Dm7b5 Dm7b5/C][Dbmaj7b5 Dbmaj7b5/C][Fm/C Fm/C][Fsus4/C Fsus4/C][F5/C F5/C][F5/C F5/C]>let ring



2nd verse :
Fm/C Fm/C          Cm Cm        Dm7b5 Dm7b5/C        Dbmaj7b5 Dbmaj7b5/C
Half my life's in books' written pages
Fm/C Fm/C            Cm Cm           Dm7b5 Dm7b5/C        Dbmaj7b5 Dbmaj7b5/C
Lived and learned from fools and from sages
Fm/C Fm/C Cm Cm             Dm7b5 Dm7b5/C    Dbmaj7b5 Dbmaj7b5/C
You know it's true
Fm/C Fm/C            Cm Cm    Dm7b5 Dm7b5/C       Dbmaj7b5 Dbmaj7b5/C
All these things come back to you



Chorus :
Fm Fm            D# D#
Sing with me, sing for the years.
C# C#                        D# D#
Sing for the laughter and sing for the tears.
Fm Fm                   D# D#
Sing with me if it's just for today,
Dm7b5 Dm7b5/C            Dbmaj7b5 Dbmaj7b5/C              
Maybe tomorrow the good Lord will take you away



|-3-----3----|-3-----3----|-3-----3----|-3-----3----|
|-2--1--2--1-|-2--1--2--1-|-2--1--2--1-|-2--1--2--1-|
|------------|------------|------------|------------|
|------------|------------|------------|------------|
|------------|------------|------------|------------|
|------------|------------|------------|------------|
Solo :

  Fm/C Fm/C             Fsus4/C Fsus4/C        F5/C F5/C
||----4-----4-----|--6----6------|--8-----8-------|-8/13-13~~~-----|
||------6-----6---|----6----6----|----6-----6---8-|----------------|
||o-5-----5-----5-|------5----5--|------5-----5---|----------------|
||o---------------|--------------|----------------|----------------|
||----------------|--------------|----------------|----------------|
||----------------|--------------|----------------|----------------|


|--3-----3-----|--3-----3-----|--3~~~--------|--------------||
|--2--1--2--1--|--2--1--2--1--|--2~~~--------|--------------||
|--------------|--------------|--------------|-------------o||
|--------------|--------------|--------------|-------------o||  x4
|--------------|--------------|--------------|--------------||
|--------------|--------------|--------------|--------------||



Chorus :
Fm Fm            D# D#
Sing with me, sing for the years.
C# C#                        D# D#
Sing for the laughter and sing for the tears.
Fm Fm                   D# D#
Sing with me if it's just for today,
Dm7b5 Dm7b5/C            Dbmaj7b5 Dbmaj7b5/C              
Maybe tomorrow the good Lord will take you away



|-3-----3----|-3-----3----|-3-----3----|-3-----3----|
|-2--1--2--1-|-2--1--2--1-|-2--1--2--1-|-2--1--2--1-|
|------------|------------|------------|------------|
|------------|------------|------------|------------|
|------------|------------|------------|------------|
|------------|------------|------------|------------|



Bridge :
A# A#        C C         C# C#
Dream on, dream on, dream on
D# D#                          Fmx Fmx Fmx Fmx  [Fm Fm]
Dream yourself a dream come true
A# A#        C C         C# C#
Dream on, dream on, dream on
D# D#                          Fmx Fmx Fmx Fmx  [Fm Fm]
Dream yourself a dream come true
A# A#        C C         C# C#        D# D#      
Dream on, dream on, dream on, dream on
A# A#        C C         C# C#        D# D#
Dream on, dream on, dream on, ah~~~~~




|-3-----3----|-3-----3----|-3-----3----|-3-----3----|
|-2--1--2--1-|-2--1--2--1-|-2--1--2--1-|-2--1--2--1-|
|------------|------------|------------|------------|
|------------|------------|------------|------------|
|------------|------------|------------|------------|
|------------|------------|------------|------------|



Chorus :
Fm Fm            D# D#
Sing with me, sing for the years.
C# C#                        D# D#
Sing for the laughter and sing for the tears.
Fm Fm                   D# D#
Sing with me if it's just for today,
C# C#                 D# D#                                    
Maybe tomorrow the good Lord will take you away
Fm Fm            D# D#
Sing with me, sing for the years.
C# C#                        D# D#
Sing for the laughter and sing for the tears.
Fm Fm                   D# D#
Sing with me if it's just for today,
C# C#                 D# D#                                    
Maybe tomorrow the good Lord will take you away



|-3-----3----|-3-----3----|-3-----3----|-3-----3----|
|-2--1--2--1-|-2--1--2--1-|-2--1--2--1-|-2--1--2--1-|
|------------|------------|------------|------------|
|------------|------------|------------|------------|
|------------|------------|------------|------------|
|------------|------------|------------|------------|


Fm Fm>let ring

Video Clip

Comments

facebook
Follow us on Facebook!
forum
Need Help? Ask your questions here!
Music expresses that which cannot be said and on which it is impossible to be silent.
(Victor Hugo)