Want to learn the guitar ? Don't miss our guitar lessons for beginners !
Pinterest T4A Youtube T4A Twitter T4A Facebook T4A

White Wedding Part 1 tab

Save tablatureAdd to favorites
tablature comments 0 Comments
Print tablaturePrint
Free White Wedding Part 1 tab for the acoustic guitar. Learn to play Billy Idol with easy chords for beginners

Chords (5)

How to read and play chords for beginners

Chord D (x,x,0,2,3,2)
View chord photo
Chord D5 (x,5,7,7,x,x)
View chord photo
Chord E5 (0,2,2,x,x,x)
View chord photo
Chord A5 (x,0,2,2,x,x)
View chord photo
Chord B5 (x,2,4,4,x,x)
View chord photo

Strumming patterns

No rhythm pattern for this song yet..

What strumming pattern for this song?
Collection of strumming patterns

 

Tab

How to read a Tab

You must be logged in to use these tools.
(Auto-scroll, metronome, text size)
Intro : 
  B5 B5               B5 B5               B5 B5               B5 B5
D|--------4-4-----|--------4-4-----|--------4-4-----|--------4-4-----|
A|----5-7-----7-5-|----5-7-----7-5-|----5-7-----7-5-|----5-7-----7-5-|
E|-7-7------------|-7-7------------|-7-7------------|-7-7------------|
 (Bass riff^^)

  B5 B5               B5 B5               E5 E5               D D
E|2---------------|--------2-------|0~--------------|2~--------------|
B|----3-----------|----3-------3---|0~--------------|3~--------------|
G|--------4-------|4---------------|1~--------------|2~--------------|
D|------------4---|----------------|2~--------------|0~--------------|

  B5 B5               B5 B5               E5 E5               D D
E|2---------------|---------2------|5~--------------|4~--------------|
B|----3-----------|----3-------3---|7~--------------|5~--------------|
G|--------4-------|4---------------|7~--------------|4~--------------|
D|------------4---|----------------|7~--------------|----------------|

[B5 B5][B5 B5][B5 B5][B5 B5]


1st verse :
B5 B5                B5 B5                  A5 A5     E5 E5 
Hey little sister what have you done?
B5 B5                B5 B5                  A5 A5     E5 E5 
Hey little sister who's the only one?
B5 B5                B5 B5
Hey little sister who's your superman?
A5 A5                A5 A5
Hey little sister who's the one you want?
B5 B5                B5 B5
Hey little sister shot gun!


Chorus : 
      A5 A5          E5 E5          B5 B5      B5 B5
It's a nice day to start again
      E5 E5           D D              B5 B5      B5 B5
It's a nice day for a white wedding
      E5 E5          D D> let ring
It's a nice day to start again

[B5 B5][B5 B5]


2nd verse :
B5 B5                B5 B5                  A5 A5     E5 E5 
Hey little sister who is it you're with?
B5 B5                B5 B5                      A5 A5     E5 E5 
Hey little sister what's your vice and wish?
B5 B5                B5 B5
Hey little sister shot gun (oh yeah)
A5 A5                A5 A5
Hey little sister who's your superman?
B5 B5                B5 B5
Hey little sister shot gun!


Chorus : 
      A5 A5          E5 E5          B5 B5      B5 B5
It's a nice day to start again
      E5 E5           D D              B5 B5      B5 B5
It's a nice day for a white wedding
      E5 E5           D D> let ring
It's a nice day to start again


   B5 B5              B5 B5
E|----------------|----------------|
B|--3----3--------|3---3---2-2-2-3-|   x2
G|--2----2--------|2---2---2-2-2-2-|
D|----------------|----------------|


Interlude :
  B5 B5                                E5 E5               D5 D5
E|2---------------|--------2-------|0---------------|2---------------|
B|----3-----------|----3-------3---|0---------------|3---------------|
G|--------4-------|4---------------|1---------------|2---------------|
D|------------4---|----------------|2---------------|0---------------|

  B5 B5                                E5 E5               D5 D5
E|2---------------|--------2-------|5---------------|4---------------|
B|----3-----------|----3-------3---|7---------------|5---------------|
G|--------4-------|4---------------|7---------------|4---------------|
D|------------4---|----------------|7---------------|----------------|

  B5 B5                                D5 D5
E|2---------------|--------2-------|2---------------|--------2-------|
B|----3-----------|----3-------3---|----3-----------|----3-------3---|
G|--------4-------|4---------------|--------4-------|4---------------|
D|------------4---|----------------|------------4---|----------------|

  B5 B5                                D5 D5               E5 E5
E|2---------------|---------2------|2---------------|----------------|
B|----3-----------|----3-------3---|----3-----------|--------5---3---|
G|--------4-------|4---------------|--------4---2---|1---4-----------|
D|------------4---|----------------|----------------|----------------|

  B5 B5                B5 B5 
E|----------------|
B|2---------------|
G|---2-------4----|
D|-------4--------|

A5 A5    E5 E5                B5 B5    B5 B5
      Take me back home yeah

  
3rd verse :
B5 B5                B5 B5                  A5 A5     E5 E5 
Hey little sister what have you done?
B5 B5                B5 B5                  A5 A5     E5 E5 
Hey little sister who's the only one?
B5 B5                 B5 B5
I've been away for so long (so long)
A5 A5                 A5 A5
I've been away for so long (so long)
B5 B5               B5 B5
I let you go for so long


Chorus : 
      A5 A5          E5 E5          B5 B5      B5 B5
It's a nice day to start again       (come on)
      E5 E5           D D              B5 B5      B5 B5
It's a nice day for a white wedding
      E5 E5          D D> let ring
It's a nice day to start again

[B5 B5][B5 B5][B5 B5][B5 B5]


Bridge :
         B5 B5                   B5 B5      B5 B5    B5 B5
There is nothing fair in this world
         B5 B5              B5 B5         B5 B5    B5 B5
There is nothing safe in this world
            B5 B5                   B5 B5
And there's nothing sure in this world
            B5 B5                   B5 B5 
And there's nothing pure in this world
         B5 B5                     B5 B5      E5 E5    D5 D5
Look for something left in this world
      B5 B5          B5 B5
Start again


Outro :
      E5 E5          D5 D5          B5 B5      B5 B5
It's a nice day for a white wedding
      E5 E5           D D              B5 B5      B5 B5
It's a nice day to start again
      E5 E5           D D              B5 B5      B5 B5
It's a nice day to start again
      E5 E5           D D              B5 B5      B5 B5
It's a nice day to start again 

Video Clip

Comments

facebook
Follow us on Facebook!
forum
Need Help? Ask your questions here!
Music is the wine that fills the cup of silence
(Robert Fripp)