Want to learn the guitar ? Don't miss our guitar lessons for beginners !
Pinterest T4A Youtube T4A Twitter T4A Facebook T4A

Shine tab

Save tablatureAdd to favorites
tablature comments 0 Comments
Print tablaturePrint
Free Shine tab for the acoustic guitar. Learn to play Collective Soul with easy chords for beginners

Chords (3)

How to read and play chords for beginners

Chord C (x,3,2,0,1,0)
View chord photo
Chord D (x,x,0,2,3,2)
View chord photo
Chord G (3,2,0,0,3,3)
View chord photo

Strumming patterns

No rhythm pattern for this song yet..

What strumming pattern for this song?
Collection of strumming patterns

 

Tab

How to read a Tab

You must be logged in to use these tools.
(Auto-scroll, metronome, text size)
Note: Original in Drop Db Db tuning (Db Db Ab Ab Db Db Gb Gb Bb Bb Eb Eb).

Riff:
   D D                            D D
E|-0h2-2-2-2~--2-0--0-0-0-0~--|-0h2-2-2-2~--2-5--2-0-2-0--|
B|-3---3-3-3~--3-3--3-3-3-3~--|-3---3-3-3~--3-3--3-3-3-3--|
G|-2---2-2-2~--2-2--0-2-0-2~--|-2---2-2-2~--2-2--2-2-2-2--|
D|-0---0-0-0~--0-0--0-0-0-0~--|-0---0-0-0~--0-0--0-0-0-0--|
A|----------------------------|---------------------------|
E|----------------------------|---------------------------|

   C C                               G G
E|-------------------------------|-------------------------------|
B|-3--3-3-3--3-3-3-3-3-3-3-3-3-0-|-------------------------------|
G|-0--0-0-0--0-0-0-0-0-0-0-0-0-0-|-0--0-0-0--0-0-0-0-0-0-0-0-0-0-|
D|-2--0-0-2--0-2-0-2-0-0-2-0-2-0-|-0--0-0-0--0-0-0-0-0-0-0-0-0-0-|
A|-3--0-0-3--0-3-0-3-0-0-3-0-3-0-|-2--0-0-2--0-2-0-2-0-0-2-0-2-0-|
E|-------------------------------|-3------3----3---3-----3---3---|


Intro: Riff x1


Verse #1:
D D
Give me a word, give me a sign
D D
Show me where to look
                    C C                G G
Tell me what will I find, what will I find?
D D
Lay me on the ground, fly me in the sky
D D
Show me where to look
                    C C                G G
Tell me what will I find, what will I find?

E|------------------------------|-----------------------------|
B|-3~--3-3-3---3-3---3-3--------|-3~--3-3-3---3-3---3-3-------|
G|-2~--2-2-2---2-2---2-2--------|-2~--2-2-2---2-2---2-2-------| x2
D|-0~--0-0-3p0-0-3p0-0-3p0-3-x--|-0~--0-0-3p0-0-3p0-0-3p0-3-5-|
A|-------------------------3-x--|-------------------------3-5-|
E|-------------------------1-x--|-------------------------1-3-|


Chorus (x4):
C C -  G G -              D D
Oh___ Heaven let your light shine down


Riff x1


Verse #2:
D D
Love is in the water, love is in the air
D D
Show me where to look
                     C C                 G G
Tell me will love be there, will love be there?
D D
Teach me how to speak, teach me how to share
D D
Teach me where to go
                     C C                   G G
Tell me will love be there, will love be there?

E|------------------------------|-----------------------------|
B|-3~--3-3-3---3-3---3-3--------|-3~--3-3-3---3-3---3-3-------|
G|-2~--2-2-2---2-2---2-2--------|-2~--2-2-2---2-2---2-2-------| x2
D|-0~--0-0-3p0-0-3p0-0-3p0-3-x--|-0~--0-0-3p0-0-3p0-0-3p0-3-5-|
A|-------------------------3-x--|-------------------------3-5-|
E|-------------------------1-x--|-------------------------1-3-|


Chorus (x4):
C C -  G G -              D D
Oh___ Heaven let your light shine down


Riff x1

Solo: 
[D D][D D][C C][G G] x2


Riff x1


Verse #3:
D D
Give me a word, give me a sign
D D
Show me where to look
                    C C                G G
Tell me what will I find, what will I find?
D D
Lay me on the ground, fly me in the sky
D D
Show me where to look
                    C C                G G
Tell me what will I find, what will I find?

E|------------------------------|-----------------------------|
B|-3~--3-3-3---3-3---3-3--------|-3~--3-3-3---3-3---3-3-------|
G|-2~--2-2-2---2-2---2-2--------|-2~--2-2-2---2-2---2-2-------| x2
D|-0~--0-0-3p0-0-3p0-0-3p0-3-x--|-0~--0-0-3p0-0-3p0-0-3p0-3-5-|
A|-------------------------3-x--|-------------------------3-5-|
E|-------------------------1-x--|-------------------------1-3-|


Chorus (x4):
C C -  G G -              D D
Oh___ Heaven let your light shine down


Outro:
          C C   -                   G G   -
I'm gonna let it shine, I'm gonna let it shine
D D
Heaven send a light, let it shine on me
    C C -   G G  -
Hey yeah, yeah
D D
Heaven send a light, let it shine on me
           C C - G G -            D D
It's gonna shi___ne, shine on me
C C - G G -                    (D D)
Shi___ne, well come on and shine


E|------------------------------|-----------------------------|
B|-3~--3-3-3---3-3---3-3--------|-3~--3-3-3---3-3---3-3-------|
G|-2~--2-2-2---2-2---2-2--------|-2~--2-2-2---2-2---2-2-------| x2
D|-0~--0-0-3p0-0-3p0-0-3p0-3-x--|-0~--0-0-3p0-0-3p0-0-3p0-3-5-|
A|-------------------------3-x--|-------------------------3-5-|
E|-------------------------1-x--|-------------------------1-3-|

Video Clip

Comments