Want to learn the guitar ? Don't miss our guitar lessons for beginners !
Pinterest T4A Youtube T4A Twitter T4A Facebook T4A

Rose Tattoo tab

Save tablatureAdd to favorites
tablature comments 0 Comments
Print tablaturePrint
Free Rose Tattoo tab for the acoustic guitar. Learn to play Dropkick Murphys with easy chords for beginners

Chords (5)

How to read and play chords for beginners

Chord C (x,3,2,0,1,0)
View chord photo
Chord Dm (x,x,0,2,3,1)
View chord photo
Chord F (1,3,3,2,1,1)
View chord photo
Chord G (3,2,0,0,3,3)
View chord photo
Chord Am (x,0,2,2,1,0)
View chord photo

 

Tab

How to read a Tab

You must be logged in to use these tools.
(Auto-scroll, metronome, text size)
Intro (mandolin): 
(Part1:)

   Am Am                               C C
e|-----------------------------7--|-888--888--8---10--12--12-12-10--8--|
B|-10--10-10-10--8--10--8--10-----|------------------------------------|
G|--------------------------------|------------------------------------|
D|--------------------------------|------------------------------------|
A|--------------------------------|------------------------------------|
E|--------------------------------|------------------------------------|
                                    -3-  -3-

   G G                            Am Am                    
e|-10------8--10--12--10--8--|--8----7---------------|
B|---------------------------|------------10------8--|
A|---------------------------|-----------------------|
D|---------------------------|-----------------------|
A|---------------------------|-----------------------|
E|---------------------------|-----------------------|

(Part2:)

   Am Am                               C C
e|-----------------------------7--|-888--888--8---10--12--12-12-12-10-8--|
B|-10--10-10-10--8--10--8--10-----|--------------------------------------|
G|--------------------------------|--------------------------------------|
D|--------------------------------|--------------------------------------|
A|--------------------------------|--------------------------------------|
E|--------------------------------|--------------------------------------|
                                    -3-  -3-

   G G                                  Am Am                    
e|-10--10-10-10--8--10--12--10--8--|--8----7---------------|
B|---------------------------------|------------10------8--|
A|---------------------------------|-----------------------|
D|---------------------------------|-----------------------|
A|---------------------------------|-----------------------|
E|---------------------------------|-----------------------|


1st verse:
    Am Am                            C C                     
The pictures tell the story, this life has many shades
    G G                           Am Am
I'd wake up every morning and before I'd start each day
           Am Am                                    C C                     
I'd take a drag from last nights cigarette that smouldered in it's tray
G G                           Am Am                Am Am     Am Am
Down a little something and then be on my way


2nd verse:
  Am Am                                   C C                     
I travelled far and wide and laid this head in many ports
      G G                          Am Am
I was guided by a compass, I saw beauty to the north
           Am Am                               C C
I drew the tales of many lives and wore the faces of my own
            G G                           Dm Dm
I had these memories all around me so I wouldn't be alone


Pre-chorus:
C C                            G G
Some may be from showing up, others are from growing up
Dm Dm                               Am Am
Sometimes I was so messed up and didn't have a clue
        C C                     G G
I ain't winning no one over I wear it just for you
              Dm Dm                     Am Am
I've got your name written here in a rose tattoo


Chorus:
     Am Am                C C
In a rose tattoo, in a rose tattoo
              G G                      Am Am
I've got your name written here in a rose tattoo


[Am Am][C C][G G][Am Am] (part 1)



3rd verse:
Am Am                            C C                     
This ones for the mighty sea, mischief, gold and piracy
G G                                    Am Am
This ones for the man that raised me taught me sacrifice and bravery
Am Am                               C C
This ones for our favourite game black and gold, we wave the flag
G G                                 Dm Dm
This ones for my family name with pride I wear it to the grave


Pre-chorus:
C C                            G G
Some may be from showing up, others are from growing up
Dm Dm                               Am Am
Sometimes I was so messed up and didn't have a clue
        C C                     G G
I ain't winning no one over I wear it just for you
              Dm Dm                     Am Am
I've got your name written here in a rose tattoo


Chorus:
     Am Am                C C
In a rose tattoo, in a rose tattoo
              G G                      Am Am
I've got your name written here in a rose tattoo
     Am Am                G G
In a rose tattoo, in a rose tattoo
              G G                      Am AmX           Am Am
I've got your name written here in a rose tattoo


Bridge:
F F                               C C
This one means the most to me, stays here for eternity
  G G                                     Am Am
A A ship that always stays the course, an anchor for my every choice
  F F                                   C C
A A rose that shines down from above, I signed and sealed these words in blood
  G G                                   G G
I heard them once, sung in a song, it played again and we sang along


[Am Am][C C][G G][Am Am] (let ring  chords) (mandolin: part 1)


        Am Am                     C C
You'll always be there with me even if you're gone
         G G                      Dm Dm
You'll always have my love, our memory will live on



Pre-chorus:
C C                            G G
Some may be from showing up, others are from growing up
Dm Dm                               Am Am
Sometimes I was so messed up and didn't have a clue
        C C                     G G
I ain't winning no one over I wear it just for you
              G G                      Am AmX
I've got your name written here in a rose tattoo

(Am Am) x2

Chorus:
     Am Am                C C
In a rose tattoo, in a rose tattoo
              G G                      Am Am
I've got your name written here in a rose tattoo
     Am Am                C C
In a rose tattoo, in a rose tattoo
     G G                         Am Am
With pride I'll wear it to the grave for you
     Am Am                C C
In a rose tattoo, in a rose tattoo
              Dm Dm                      Am Am
I've got your name written here in a rose tattoo
     Am Am                C C
In a rose tattoo, in a rose tattoo
           Dm Dm                      Am AmX
Signed and sealed in blood I would die for you 



Outro:
[Am Am][C C][G G][Am Am] x2 

C C        G G       Dm Dm               Am Am
Oh______ Oh_____ Oh____ oh__oh___ oh__
C C        G G       Dm Dm          Am Am
Oh______ Oh_____ Oh________

[Am Am][C C][G G][Am Am] x2 

C C        G G       Dm Dm               Am Am
Oh______ Oh_____ Oh____ oh__oh___ oh__
C C        G G       Dm Dm         X
Oh______ Oh_____ Oh________


G G->let ring Am Am>Let ring


Video Clip

Comments

facebook
Follow us on Facebook!
forum
Need Help? Ask your questions here!
Music is the mediator between the spiritual and the sensual life.
(Ludwig van Beethoven)