Did you know ? We offer an exclusive scale finder of more than 83.000 guitar scales !
Pinterest T4A Youtube T4A Twitter T4A Facebook T4A

I See Fire tab

Save tablatureAdd to favorites
tablature comments 0 Comments
Print tablaturePrint
From "The Hobbit: The Desolation of Smaug".

Chords (6)

How to read and play chords for beginners

Chord C (x,3,2,0,1,0)
View chord photo
Chord D (x,x,0,2,3,2)
View chord photo
Chord Em (0,2,2,0,0,0)
View chord photo
Chord G (3,2,0,0,3,3)
View chord photo
Chord Am7 (x,0,2,0,1,0)
View chord photo
Chord Bm (x,2,4,4,3,2)
View chord photo

Strumming patterns

No rhythm pattern for this song yet..

What strumming pattern for this song?
Collection of strumming patterns

 

Tab

How to read a Tab

Stick a Capo on 6

You must be logged in to use these tools.
(Auto-scroll, metronome, text size)
Intro:
Oh misty eye of the mountain below
Keep careful watch of my brothers' souls
And should the sky be filled with fire and smoke
                           Em Em>let ring
Keep watching over Durin's son

   Em Em             C C         D D           Em Em
e|-------------------------------------------------|
B|-5--------------------x---3---3---x----------x---|
G|-2h4p2p0-----0--0-----x---0h2-----x---0~~----x---| 
D|---------0h2----0h2~--x---0-------x---2~~----x---|
A|----------------3-----x-----------x---2~~----x---|
E|-0------------------------------------0~~--------|

   Em Em             C C         D D           Em Em
e|-------------------------------------------------|
B|-5--------------0h1~--x-------3---x----------x---|
G|-2h4p2p0-----0--0-----x---0h2-----x---0~~----x---| 
D|---------0h2----2-----x---0-------x---2~~----x---|
A|----------------3-----x-----------x---2~~----x---|
E|-0------------------------------------0~~--------|

1st verse:
              Em Em     G G
If this is to end in fire
        D D                C C
Then we shall all burn together
          Em Em           G G    D D        Am7 Am7
Watch the flames climb high into the night
        Em Em    G G      D D              C C
Calling out father, stand by and we will
          Am7 Am7         Bm Bm            C C>let ring      (C C)
Watch the flames burn auburn on the mountain side


e|-------------------------------------------------|
B|-5--------------------x---3---3---x----------x---|
G|-2h4p2p0-----0--0-----x---0h2-----x---0~~----x---|
D|---------0h2----0h2~--x---0-------x---2~~----x---|
A|----------------3-----x-----------x---2~~----x---|
E|-0------------------------------------0~~--------|


2nd verse:
                 Em Em    G G
And if we should die tonight
        D D       C C
Then we should all die together
        Em Em       G G   D D        Am7 Am7
Raise a glass of wine for the last time
        Em Em    G G     D D          C C
Calling out father, prepare as we will
          Am7 Am7         Bm Bm            C C        C C
Watch the flames burn auburn on the mountain side
    Am7 Am7    Bm Bm              C C      C C
Desolation comes upon the sky


Chorus:
          Em Em  C C  D D          Em Em          
Now I see fire,  inside the mountain
      Em Em  C C  D D           Em Em
I see fire,  burning the trees 
          Em Em  C C  D D         Em Em
And I see fire,  hollowing souls
      Em Em  C C  D D            Am7 Am7>let ring
I see fire,  blood in the breeze
NC.
And I hope that you'll remember me

e|-------------------------------------------------|
B|-5--------------------x---3---3---x----------x---|
G|-2h4p2p0-----0--0-----x---0h2-----x---0~~----x---|  x2
D|---------0h2----0h2~--x---0-------x---2~~----x---|
A|----------------3-----x-----------x---2~~----x---|
E|-0------------------------------------0~~--------|


3rd verse:
              Em Em     G G
Oh, should my people fall
         D D              C C
Then surely I'll do the same
            Em Em       G G
Confined in mountain halls
           D D             Am7 Am7
We got too close to the flame
        Em Em     G G   D D             C C     
Calling out father hold fast and we will
          Am7 Am7         Bm Bm            C C        C C
Watch the flames burn auburn on the mountain side
    Am7 Am7    Bm Bm             C C    C C
Desolation comes upon the sky



Chorus:
          Em Em  C C  D D          Em Em          
Now I see fire,  inside the mountain
      Em Em  C C  D D           Em Em
I see fire,  burning the trees 
          Em Em  C C  D D         Em Em
And I see fire,  hollowing souls
      Em Em  C C  D D            Am7 Am7>let ring
I see fire,  blood in the breeze
NC.
And I hope that you'll remember me



Bridge:
           Em Em       G G
And if the night is burning
       D D        C C
I will cover my eyes
           Em Em     G G
For if the dark returns then
   D D             Am7 Am7
My brothers will die
           Em Em            G G
And as the sky's falling down
             D D              C C
It crashed into this lonely town
              Am7 Am7             Am7 Am7
And with that shadow upon the ground
  Bm Bm      C C                D D
I hear my people screaming out


Chorus:
          Em Em  C C  D D          Em Em          
Now I see fire,  inside the mountain
      Em Em  C C  D D           Em Em
I see fire,  burning the trees 
          Em Em  C C  D D         Em Em
And I see fire,  hollowing souls
      Em Em  C C  D D            Am7 Am7
I see fire,  blood in the breeze
      Em Em        C C                    D D        Em Em 
I see fire, oh you know I saw a city burning (fire)
      Em Em    C C                      D D     Em Em
I see fire, feel the heat upon my skin (fire)
          Em Em    C C       D D    Em Em 
And I see fire, oooooo (fire)
          Em Em        C C             D D        Em Em>let ring
And I see fire burn auburn on the mountain side

   Em Em             C C         D D           Em Em
e|-------------------------------------------------|
B|-5--------------------x---3---3---x----------x---|
G|-2h4p2p0-----0--0-----x---0h2-----x---0~~----x---| 
D|---------0h2----0h2~--x---0-------x---2~~----x---|
A|----------------3-----x-----------x---2~~----x---|
E|-0------------------------------------0~~--------|

Video Clip

Comments

facebook
Follow us on Facebook!
forum
Need Help? Ask your questions here!
Music expresses that which cannot be said and on which it is impossible to be silent.
(Victor Hugo)