Did you know ? We offer a chords chart including more than 1000 choard diagrams with photos !
Pinterest T4A Youtube T4A Twitter T4A Facebook T4A

Society tab

Save tablatureAdd to favorites
tablature comments 3 Comments
Print tablaturePrint
Free Society tab for the acoustic guitar. Learn to play Eddie Vedder with easy chords for beginners

Chords (4)

How to read and play chords for beginners

Chord D (x,x,0,2,3,2)
View chord photo
Chord G (3,2,0,0,3,3)
View chord photo
Chord Bm (x,2,4,4,3,2)
View chord photo
Chord A (x,0,2,2,2,0)
View chord photo

Strumming patterns

No rhythm pattern for this song yet..

What strumming pattern for this song?
Collection of strumming patterns

 

Tab

How to read a Tab

You must be logged in to use these tools.
(Auto-scroll, metronome, text size)
Intro: 
[Bm Bm]x4


1st verse :
D D   -       A A    -     D D
 Oh, it's a mystery to me
          D D    -     G G   -          A A         
We have a greed with which we have agreed
        G G   -             A A     -          Bm Bm
And you think you have to want more than you need
  G G   -           A A     -         Bm Bm      Bm Bm
Until you have it all you won't be free



Chorus :
    G G                   D D
Society, you're a crazy breed
                A A              Bm Bm    Bm Bm
Hope you're not lonely without me


2nd verse :
         D D   -              A A    -             D D
When you want more than you have you think you need
             D D    -              G G   -                A A         
And when you think more than you want your thoughts begin to bleed
  G G   -           A A     -      Bm Bm
I think I need to find a bigger place
                 G G   -              A A     -          Bm Bm         Bm Bm
Because when you have more than you think you need more space


Chorus :
    G G                   D D
Society, you're a crazy breed
                A A              Bm Bm
Hope you're not lonely without me
    G G             D D
Society, crazy indeed
                A A              Bm Bm    Bm Bm
Hope you're not lonely without me



Solo :
[D D-A A][D D][D D-G G][A A]
[G G-A A][Bm Bm][G G-A A][Bm Bm]
[G G][D D][A A][Bm Bm][Bm Bm]


         D D  -     A A    -     D D          D D   -      G G  -      A A
e|-----|---------------------------------------------------------|
B|-----|---------------------7~-------7-10~---10-10/12~---12-10~-|
G|-----|-7~~--7-7-9-9~---7h9--------7----------------------------|
D|-7h9-|---------------------------------------------------------|
A|-----|---------------------------------------------------------|
E|-----|---------------------------------------------------------|

       G G   -   A A   -   Bm Bm                   G G   -    A A -  Bm Bm
e|-----------------------------------------------------------|
B|---7-8-8-8-7---------7~--7-7-------------------------------|
G|-7-----------9~--7-9---------9-7----------7--7-9^v-9-9-7---|
D|---------------------------------9~---7h9---------------9~-|
A|-----------------------------------------------------------|
E|-----------------------------------------------------------|

     G G          D D            A A           Bm Bm          Bm Bm
e|---------------------------------------------------------|
B|----8-8---8-8-8p7---7-7----------------------------------|
G|-----------------------9-7-9~--9-9^v-7-------------------|
D|---------------------------------------9~~---------------|
A|---------------------------------------------------------|
E|---------------------------------------------------------|



3rd verse :
        D D   -           A A    -             D D
There's those thinking, more or less, less is more
       D D    -        G G   -          A A         
But if less is more, how you keeping score?
          G G   -           A A     -        Bm Bm
Means for every point you make, your level drops
G G   -              A A     -           Bm Bm              Bm Bm
 Kinda like you're starting from the top, you can't do that.

 
 
Chorus :
    G G                   D D
Society, you're a crazy breed
                A A              Bm Bm
Hope you're not lonely without me
    G G             D D
Society, crazy indeed
                A A              Bm Bm
Hope you're not lonely without me
    G G               D D
Society, have mercy on me
                A A               Bm Bm
Hope you're not angry if I disagree
    G G             D D
Society, crazy indeed
                A A      A A       Bm Bm    Bm Bm    Bm Bm>let ring
Hope you're not lonely  without me...

Video Clip

Comments

facebook
Follow us on Facebook!
forum
Need Help? Ask your questions here!
A painter paints pictures on canvas. Musicians paint their pictures on silence.
(Leopold Stokowski)