Did you know ? We offer an exclusive scale finder of more than 83.000 guitar scales !
Pinterest T4A Youtube T4A Twitter T4A Facebook T4A

Tears In Heaven tab

Save tablatureAdd to favorites
tablature comments 0 Comments
Print tablaturePrint
Free Tears in heaven tab for the acoustic guitar. Learn to play Eric Clapton with easy chords for beginners

Chords (9)

How to read and play chords for beginners

Chord C (x,3,2,0,1,0)
View chord photo
Chord D (x,x,0,2,3,2)
View chord photo
Chord E (0,2,2,1,0,0)
View chord photo
Chord Em (0,2,2,0,0,0)
View chord photo
Chord F#m (2,4,4,2,2,2)
View chord photo
Chord G (3,2,0,0,3,3)
View chord photo
Chord Am (x,0,2,2,1,0)
View chord photo
Chord G/B (7,10,9,7,8,7)
Chord A (x,0,2,2,2,0)
View chord photo

Strumming patterns

No rhythm pattern for this song yet..

What strumming pattern for this song?
Collection of strumming patterns

 

Tab

How to read a Tab

You must be logged in to use these tools.
(Auto-scroll, metronome, text size)
Main riff:
e|--------|--------------------|----------------|----------------|-----------------|
B|--------|-----2h3p2--5---5-2-|---2---2----2---|-3---3---3---3--|-2---2---2---2---|
G|--------|----------2-4---4-2-|---2---2----2---|-2---2---2---1--|-2---2---2---2---|
D|--------|---2----------------|----------------|----------------|-----------------|
A|--------|-0------------------|----------------|----------------|-0-0---0---0---0-|
E|-----0-2|------------4-4---2-|-2---2-0--0---0-|-2-2---2-0---0--|-----------------|
 
 
 
Intro : Main riff x1
 
 
1st verse:
A A         E E       F#m F#m   *1
Would you know my name
D D     A A             E E   *
If I saw you in Heaven
A A        E E      F#m F#m     *2
Would it be the same
D D     A A             E E   *
if I saw you in Heaven
 
 
for "* ; *1 and *2", see the end of the tab
 
 
 
Chorus:
 
|----------------|----------------|----------------|----------------|
|--2-----2-----2-|--2-----2-----2-|--3-----3-----3-|----------------|
|--2-----2-----2-|--1-----1-----1-|--0-----0-----0-|3---3----4---6--|
|----------------|----------------|----------------|4---4----4---6--|
|----------------|----------------|----------------|----------------|
|-2-----2-----2---1-----1-----1---|0-----0-----0---|--2---2--4---6--|
      I must be strong                    and carry on     Cause I 
 
|-----------------|-----------------|
|---3----3----3---|--3x-3x----3-----|
|---2----2----2---|--2x-2x----2-----|
|-----------------|--2x-2x----2-----|
|---2---2----2----|-----------------|
|-----------------|-----------------|
     know I don't belong       here in heaven..
 

Main riff x1
 
2nd Verse:
A A         E E       F#m F#m   *1
Would you hold my hand
D D     A A             E E   *
If I saw you in heaven
A A         E E       F#m F#m   *2
Would you help me stand
D D     A A             E E   *
If I saw you in heaven
 
 
 
Chorus:
I'll find my way through night and day
`Cause I know I just can't stay...here in heaven. 
 
 
 
Main riff x1
 
 
 
Bridge:
C C        G/B G/B       Am Am             D D         G G         [D D][Em Em][D D-G G]
Time can bring you down, time can bend your knees 
C C        G/B G/B        Am Am              D D      G G     D D          E E  
Time can break your heart, have you beggin please beggin please
 
 
 
Solo: (play one verse)
 
 
 
Chorus :
Beyond the door, there's peace for sure
and I know there'll be no more...tears in heaven
 
 
 
Main riff x1
 
 
 
3rd verse:
A A         E E       F#m F#m   *2
Would you know my name
D D     A A             E E   *
If I saw you in Heaven
A A        E E      F#m F#m     *1
Would it be the same
D D     A A             E E   *
if I saw you in Heaven
 
 
 
 
Chorus:
I must be strong and carry on Cause I
know I don't belong...here in heaven
Cause I know I don't belong...here in heaven
 
 
 
Outro : Main riff x1
 
   |-----------------|
   |---0---2----3----|
*  |---1---2----4----|
   |-----------------|
   |-----------------|
   |-0---0-----------|
 
 
 
       S     S     S
   |--5/7-5-------------|
   |--------5/7-5-----5-|
1* |--------------4/6---|
   |--------------------|
   |--------------------|
 
 
         H
   |---2-4-45--4-2-0-|
   |-----------------|
2* |-----------------|
   |-----------------|
   |-----------------|
   |-----------------|

Video Clip

Comments