Want to learn the guitar ? Don't miss our guitar lessons for beginners !
Pinterest T4A Youtube T4A Twitter T4A Facebook T4A

Wrong Side Of Heaven tab

Save tablatureAdd to favorites
tablature comments 0 Comments
Print tablaturePrint
Free Wrong Side of Heaven tab for the acoustic guitar. Learn to play Five Finger Death Punch with easy chords for beginners

Chords (6)

How to read and play chords for beginners

Chord C (x,3,2,0,1,0)
View chord photo
Chord Dm (x,x,0,2,3,1)
View chord photo
Chord Em (0,2,2,0,0,0)
View chord photo
Chord F (1,3,3,2,1,1)
View chord photo
Chord G (3,2,0,0,3,3)
View chord photo
Chord Am (x,0,2,2,1,0)
View chord photo

Strumming patterns

No rhythm pattern for this song yet..

What strumming pattern for this song?
Collection of strumming patterns

 

Tab

How to read a Tab

Stick a Capo on 2

You must be logged in to use these tools.
(Auto-scroll, metronome, text size)
Capo: #2

Intro:
    Dm Dm                                     Am Am
e||---1------1------1------1------1------|---0------0------0------0------0------|
B||-----3------3------3------3------3----|-----1------1------1------1------1----|
G||-2------2------2------2------2------2-|-2------2------2------2------2------2-|
C||--------------------------------------|--------------------------------------|
A||--------------------------------------|--------------------------------------|
E||--------------------------------------|--------------------------------------|

    C C                                      Em Em
 e|---0------0------0------0------0------|---0------0------0------0------0------||
 B|-----1------1------1------1------1----|-----0------0------0------0------0----||
 G|-0------0------0------0------0------0-|-0------0------0------0------0------0-|| 
 C|--------------------------------------|--------------------------------------||
 A|--------------------------------------|--------------------------------------|| x3
 E|--------------------------------------|--------------------------------------||


Solo:
e||--------------------------------------|--------------------------------------|
B||--------------------------------------|--------------------------------------|
G||--------------------------------0--2~~|-(2)~~~~------------------------------|
C||------------------------0--0--2-------|--------------------------------------|
A||-0~~~~--------------------------------|--------------------------------------|
E||--------------------------------------|--------------------------------------|
^^1st time only

 e|--------------------------------------|--------------------------------------||
 B|--5~~~-------------5--6--8--6--5------|----5--6~~-----5----------------------||
 G|----------------------------------7--5/7--------------------------7--5h7-----||
 C|--------------------------------------|----------------------------------7~~-|| x2
 A|--------------------------------------|--------------------------------------||
 E|--------------------------------------|--------------------------------------||

*fill: E|--0--3--|

Verse #1:
Dm Dm                   Am Am
 I spoke to God today and she said that she's ashamed
C C                   Em Em 
 What have I become? What have I done?
Dm Dm                         Am Am
 I spoke to the devil today and he swears he's not to blame
C C                Em Em 
 And I understood 'cause I feel the same


Chorus:
Am Am                 G G -   F F  -   *fill
Arms wide open, I stand alone
Am Am              G G  -             F F   -  *fill
I'm no hero and I'm not made of stone
Am Am              G G  -         F F   -  *fill
Right or wrong, I can hardly tell
           Am Am                           G G    -            F F   -   *fill
I'm on the wrong side of heaven and the righteous side of hell
    Am Am                           G G    -              F F   -             (Dm Dm)
The wrong side of heaven and the righteous side, the righteous side of hell


[Dm Dm][Am Am][C C][Em Em]


Verse #2
Dm Dm                     Am Am
 I heard from God today and she sounded just like me
C C                       Em Em 
 What have I done and who have I become
Dm Dm                    Am Am
 I saw the devil today and he looked a lot like me
C C              Em Em 
 I looked away, I turned away


Chorus:
Am Am                 G G -   F F  -   *fill
Arms wide open, I stand alone
Am Am              G G  -             F F   -  *fill
I'm no hero and I'm not made of stone
Am Am              G G  -         F F   -  *fill
Right or wrong, I can hardly tell
           Am Am                           G G    -            F F   -   *fill
I'm on the wrong side of heaven and the righteous side of hell
    Am Am                           G G    -              F F   -             (Dm Dm)
The wrong side of heaven and the righteous side, the righteous side of hell


Solo:
[Dm Dm-Am Am][Dm Dm-Am Am][G G-Am Am][Am Am-C C]


Bridge:
Dm Dm  -       Am Am  -  Dm Dm    -      Am Am   -
 I'm not defending, cownward descending
        G G  -                 Am Am   -
Falling further and further away
         Am Am    -     C C    -    (x)
Getting closer every day
 
[Dm Dm][Am Am][C C][Em Em]

                         Dm Dm
I'm getting closer every day
       Am Am          C C
To the end, to the end the end of the end
               Em Em> let ring
I'm getting... closer every day


Chorus:
Am Am                 G G -   F F  -   *fill
Arms wide open, I stand alone
Am Am              G G  -             F F   -  *fill
I'm no hero and I'm not made of stone
Am Am              G G  -         F F   -  *fill
Right or wrong, I can hardly tell
           Am Am                           G G    -            F F   -   *fill
I'm on the wrong side of heaven and the righteous side of hell
    Am Am                           G G    -            F F   -   *fill
The wrong side of heaven and the righteous side of hell
    Am Am                           G G    -              F F   -             (Am Am)
The wrong side of heaven and the righteous side, the righteous side of hell


[Am Am][G G-F F] x2 (fade out)


Comments


facebook
Follow us on Facebook!
forum
Need Help? Ask your questions here!
Music is the wine that fills the cup of silence
(Robert Fripp)