Did you know ? We offer a chords chart including more than 1000 choard diagrams with photos !
Pinterest T4A Youtube T4A Twitter T4A Facebook T4A

I Walk The Line tab

Save tablatureAdd to favorites
tablature comments 0 Comments
Print tablaturePrint
Free I walk the line tab for the acoustic guitar. Learn to play Johnny Cash with easy chords for beginners
starSong listed in our famous tablatures

Chords (7)

How to read and play chords for beginners

Chord D (x,x,0,2,3,2)
View chord photo
Chord E (0,2,2,1,0,0)
View chord photo
Chord E7 (0,2,0,1,0,0)
View chord photo
Chord G (3,2,0,0,3,3)
View chord photo
Chord A7 (x,0,2,0,2,0)
View chord photo
Chord B7 (x,2,1,2,0,2)
View chord photo
Chord A (x,0,2,2,2,0)
View chord photo

Strumming patterns

No rhythm pattern for this song yet..

What strumming pattern for this song?
Collection of strumming patterns

 

Tab

How to read a Tab

Stick a Capo on 1

You must be logged in to use these tools.
(Auto-scroll, metronome, text size)
Intro:
         A A           D D           A A           E E           B7 B7               | E E              x2|
D|-------------------0---0-0-------2-------------------------------------||-----------------||
A|-------0---0-0-2-4---0-----4-2-0---0-0-------2-2-------2-2-2-0-------2-||---2---2---2---2-||
E|-0-2-4---0-----------------------------4-2-0-----0-2-0---------4-2-0---||-0---0---0---0---||


1st verse/chorus :
         B7 B7                           E E
I keep a close watch on this heart of mine
          B7 B7                     E E
I keep my eyes wide open all the time
           A A                         E E
I keep the ends out for the tie that binds
               B7 B7               E E
Because you're mine, I walk the line


A|--------0-|---0---0---0---0---0---0---0---0-|  (A x4)
E|--0-2-4---|-0---0---0---0---0---0---0---0---|


2nd verse/chorus :
          E7 E7                    A A 
I find it very, very easy to be true
          E7 E7                         A A
I find myself alone when each day is through
            D D                  A A
Yes, I'll admit I'm a fool for you
               E7 E7               A A 
Because you're mine, I walk the line


D|--------0-|---0---0---0---0---0---0---0---0-|  (D x4)
A|--0-2-4---|-0---0---0---0---0---0---0---0---|


3rd verse/chorus :
            A7 A7                      D D
As sure as night is dark and day is light
           A7 A7                      D D
I keep you on my mind both day and night
          G G                               D D
And happiness I've known proves that it's right
              A7 A7                D D
Because you're mine, I walk the line


D|--0-------|----------------------------------|
A|----4-2-0-|---0---0---0---0---0---0---0---0--|   (A x4)
E|----------|-0---0---0---0---0---0---0---0----|


4th verse/chorus :
             E7 E7                     A A
You've got a way to keep me on your side
            E7 E7                        A A
You give me cause for love that I can't hide
           D D                            A A 
For you I know I'd even try to turn the tide
               E7 E7               A A
Because you're mine, I walk the line


A|--0-------|-2---2---2---2---2---2---2---2---|   (E x4)
E|----4-2-0-|---0---0---0---0---0---0---0---0-|


5th verse/chorus :
         B7 B7                           E E
I keep a close watch on this heart of mine
          B7 B7                     E E
I keep my eyes wide open all the time.
           A A                         E E
I keep the ends out for the tie that binds
               B7 B7               E E
Because you're mine, I walk the line


Fade out:
  E E
A|-2---2---2---2--
E|---0---0---0---- etc.

Video Clip

Comments

facebook
Follow us on Facebook!
forum
Need Help? Ask your questions here!
Without music life would be a mistake.
(Nietzsche)