You have an Android smartphone? We have a free and simple to use metronome for you then!
Pinterest T4A Youtube T4A Twitter T4A Facebook T4A

Don't Speak tab

Save tablatureAdd to favorites
tablature comments 0 Comments
Print tablaturePrint
Free Don't Speak tab for the acoustic guitar. Learn to play No Doubt with easy chords for beginners
starSong listed in our famous tablatures

Chords (17)

How to read and play chords for beginners

Chord C (x,3,2,0,1,0)
View chord photo
Chord C7 (x,3,2,3,1,0)
View chord photo
Chord Cm (x,3,5,5,4,3)
View chord photo
Chord C# (x,4,6,6,6,4)
View chord photo
Chord C#5 (x,4,6,6,x,x)
View chord photo
Chord D# (x,6,8,8,8,6)
View chord photo
Chord D#5 (x,6,8,8,x,x)
View chord photo
Chord Fm (1,3,3,1,1,1)
View chord photo
Chord F5 (1,3,3,x,x,x)
View chord photo
Chord F# (2,4,4,3,2,2)
View chord photo
Chord Gm (3,5,5,3,3,3)
View chord photo
Chord G# (4,6,6,5,4,4)
View chord photo
Chord G#sus4 (4,6,6,6,4,4)
View chord photo
Chord A# (x,1,3,3,3,1)
View chord photo
Chord A#m (x,1,3,3,2,1)
View chord photo
Chord A#5 (x,1,3,3,x,x)
View chord photo
Chord B (x,2,4,4,4,2)
View chord photo

Strumming patterns

No rhythm pattern for this song yet..

What strumming pattern for this song?
Collection of strumming patterns

 

Tab

How to read a Tab

You must be logged in to use these tools.
(Auto-scroll, metronome, text size)
Intro:

   Cm Cm       Cm Cm        Cm Cm      Cm Cm
E|-----------------|-----------------|
B|--4---4---4---4--|--4---4---4---4--|
G|--5---5---5---5--|--5---5---5---5--|    
D|----5---5---5---5|----5---5---5---5|    
A|-----------------|-----------------| 
E|-----------------|-----------------|


1st verse:
Cm Cm        Cm Cm   Gm Gm           Fm Fm
You and me, we used to be together
A# A#          Gm Gm     Fm Fm     A# A#
Every day together always
  Cm Cm       Gm Gm          Fm Fm        A# A#
I really feel that I'm losing my best friend
  Gm Gm                 Cm Cm       Fm Fm      A# A#
I can't believe this could be the end
   Cm Cm        Gm Gm       Fm Fm          A# A#
It looks as though you're letting go
    D# D#                 A# A#              C C> let ring (C C)
And if it's real, well I don't want to know



Chorus:
Fm Fm             A#m A#m                   D# D#
Don't speak, I know just what you're saying
C C                 A#m A#m
So please stop explaining
      C C                 Fm Fm     A#m A#m - C7 C7  -
Don't tell me 'cause it hurts
Fm Fm          A#m A#m                D# D#
Don't speak I know what you're thinking
C C                 A#m A#m
I don't need your reasons
      C C                 Fm Fm     C#5 C#5 - D#5 D#5   -
Don't tell me 'cause it hurts



2nd verse:
    Cm Cm      Cm Cm  Gm Gm            Fm Fm
Our memories,   they can be inviting
             A# A#         Gm Gm     Fm Fm          A# A#
But some are altogether mighty frightening
Cm Cm    Gm Gm   Fm Fm           A# A#
As we die, both you and I
D# D#                  A# A#              C C> let ring (C C)
 With my head in my hands I sit and cry

 

Chorus:
Fm Fm             A#m A#m                   D# D#
Don't speak, I know just what you're saying
C C                 A#m A#m
So please stop explaining
      C C                 Fm Fm     A#m A#m - C7 C7  -
Don't tell me 'cause it hurts
Fm Fm          A#m A#m                D# D#
Don't speak I know what you're thinking
C C                 A#m A#m
I don't need your reasons
      C C                 Fm Fm -- D# D# -- C C -- G# G# --
Don't tell me 'cause it hurts



Bridge:
C# C#       G# G#              B B      F# F#              
It's all ending I gotta stop pretending 
       C#5 C#5   D#5 D#5  G#sus4 G#sus4  G# G#>let ring
Who we are...


Solo: 
 
  Cm Cm            Gm Gm               Fm Fm                  A# A# 
E|-----------3------------------|-------------------------------|
B|-----4--6-----6~-3------------|-----4----6/8--6----8~---------|
G|--5-----------------3---------|--5----------------------------|
D|------------------------5--6~-|-------------------------------|
A|------------------------------|-------------------------------|
E|------------------------------|-------------------------------|

  Cm Cm            Gm Gm                Fm Fm               A# A# 
E|-----------3------------------|------3--4--3--4--6----4p3-----|
B|-----4--6-----6~-3------------|----4-----------------------6~-|
G|--5-----------------3---------|--5----------------------------|
D|------------------------5--6~-|-------------------------------|
A|------------------------------|-------------------------------|
E|------------------------------|-------------------------------|

  Cm Cm             Gm Gm                          Fm Fm                 A# A# 
E|------8--10-11-10h11p10-p8-10----8-------|-----------------------------------|
B|-----8------------------------11---8--11-|----8--------8-9-11--9h11p9---8~---|
G|----8------------------------------------|-10---8--10------------------------|
D|--10-------------------------------------|-----------------------------------|
A|-----------------------------------------|-----------------------------------|
E|-----------------------------------------|-----------------------------------|
 
  Cm Cm                    Gm Gm                Fm Fm>let ring  (Fm Fm) 
E|--------------------------------------|-----------------|
B|--------------------------------------|-----------------|
G|-----------------------------3h5--3-1-|-0h1p0~----------|
D|-----------3--5-----3--5--6-----------|-----------------|
A|--3-h5-h6--------6--------------------|-----------------|
E|--------------------------------------|-----------------|


Cm Cm        Gm Gm
You and me
Fm Fm           A# A#     F5 F5   A#5 A#5 
I can see us dying, are we?
|---PM--->


Chorus:
Fm Fm             A#m A#m                   D# D#
Don't speak, I know just what you're saying
C C                 A#m A#m
So please stop explaining
      C C                 Fm Fm     A#m A#m- C7 C7  -
Don't tell me 'cause it hurts, No__ no___
Fm Fm          A#m A#m                D# D#
Don't speak I know what you're thinking
    C C                 A#m A#m
And I don't need your reasons
      C C                 Fm Fm
Don't tell me 'cause it hurts
      A#m A#m  -   C7 C7  -    Fm Fm
Don't tell me 'cause it hurts
A#m A#m                     D# D#
I know just what you're saying
C C                 A#m A#m
So please stop explaining
C C            Fm Fm           A#m A#m -  C7 C7  -
Don’t speak, don’t speak, don’t speak
Fm Fm  A#m A#m                D# D#
Oh, I know what you're thinking and
C C                 A#m A#m
I don't need your reasons
              C C                   Fm Fm
I know you’re good, I know you’re good
              A#m A#m  -    C7 C7  -
I know you’re real good
Fm Fm  A#m A#m   D# D#  C C     A#m A#m
Oh, Lalalala, lalalala
C C      Fm Fm     A#m A#m - C7 C7  -
Don’t, don’t, Ooh   ooh


Outro: 
Fm Fm                 A#m A#m
Hush me, hush me darling
D# D#                C C
Hush me, hush me darling
A#m A#m                     
Hush me, hush me, 
      C C                 Fm Fm     A#m A#m - C7 C7  -
Don’t tell me ‘cause it hurts
(Fade Out)

Video Clip

Comments

facebook
Follow us on Facebook!
forum
Need Help? Ask your questions here!
A painter paints pictures on canvas. Musicians paint their pictures on silence.
(Leopold Stokowski)