You have an Android smartphone? We have a free and simple to use metronome for you then!
Pinterest T4A Youtube T4A Twitter T4A Facebook T4A

Karma Police tab

Save tablatureAdd to favorites
tablature comments 0 Comments
Print tablaturePrint
Free Karma police tab for the acoustic guitar. Learn to play Radiohead with easy chords for beginners

Chords (10)

How to read and play chords for beginners

Chord C (x,3,2,0,1,0)
View chord photo
Chord D (x,x,0,2,3,2)
View chord photo
Chord Em (0,2,2,0,0,0)
View chord photo
Chord E7 (0,2,0,1,0,0)
View chord photo
Chord F (1,3,3,2,1,1)
View chord photo
Chord F# (2,4,4,3,2,2)
View chord photo
Chord G (3,2,0,0,3,3)
View chord photo
Chord Am (x,0,2,2,1,0)
View chord photo
Chord Bm (x,2,4,4,3,2)
View chord photo
Chord Am/F# (2,0,2,2,1,0)

Strumming patterns

No rhythm pattern for this song yet..

What strumming pattern for this song?
Collection of strumming patterns

 

Tab

How to read a Tab

You must be logged in to use these tools.
(Auto-scroll, metronome, text size)
Intro:
 Am Am           Am/F# Am/F#        Em Em         G G            Am Am         F F            Em Em         G G    
|-----------|-----------|-----------|-----------|-----------|-----------|-----------|-----------|
|---1--1-1--|-----------|--0--------|-0---------|--1--------|----1--1-1-|--0--------|-0---------|
|---2--2-2--|---2--2-2--|--0--------|-0---------|--2--------|----2--2-2-|--0--------|-0---------|
|---2--2-2--|---0--0-0--|--2--------|-0---------|--2--------|----3--3-3-|--2--------|-0---------|
|-0----0-0--|---x--x-x--|--2--------|-2---0--2--|-----2--0--|----3--3-3-|--2--------|-2---0--2--|
|-----------|-2----2-2--|--0--0--2--|-3---------|-----------|-3--1--1-1-|--0--0--2--|-3---------|


  Am Am        D D           G G     Am/F# Am/F#   C C             Am Am           Am Am          Bm Bm          D D 
|---------|-2--2--2-2-|-------------|-------------|------------|-----------|-----------|-2--2--2-2-|
|-1-------|-3--3--3-2-|-------------|-------------|-1---1--1-1-|-1-1---1-1-|----3--3-3-|-3--3--3-3-|
|-2-------|-2--2--2-2-|---0-0-------|---0-0---0-0-|-2---2--2-2-|-2-2---2-2-|----4--3-3-|-2--2--2-2-|
|-2-------|-0--0--0-0-|---0-0---0-0-|-2-2-2-0-0-0-|-2---2--2-2-|-2-2---2-2-|-4--4--4-4-|-0--0--0-0-|
|----2--0-|-----------|-2-2-2---x-x-|-3-3-3-2-2-2-|-0---0--0-0-|-0-0---0-0-|-2--2--2-2-|-----------|
|---------|-----------|-3-3-3-2-2-2-|-------------|---—--------|-----------|-----------|-----------|



1st verse :
Am Am      Am/F# Am/F#  Em Em  G G         Am Am      F F       Em Em
   Karma police arrest this man he talks in maths
      G G               Am Am         D D      G G       C C     Am Am  Am Am  Bm Bm  D D
   He buzzes like a fridge he's like a detuned radio



2nd verse :
Am Am      Am/F# Am/F#  Em Em  G G         Am Am         F F      Em Em
   Karma police, arrest this girl her Hitler hairdo
      G G              Am Am        D D        G G         C C    Am Am  Am Am  Bm Bm  D D
   Is making me feel ill and we have crashed her party 



Chorus :
 C C             D D       G G  F# F#
   This is what you get,
 C C             D D       G G  F# F#
   This is what you get,
 C C             D D       G G  
   This is what you get 
            F# F#         C C     C C  Bm Bm  D D
   When you mess with us 



3rd verse :
Am Am      Am/F# Am/F#  Em Em    G G           Am Am       F F      Em Em
   Karma Police I've given all I can it's not enough
        G G           Am Am       D D           G G      C C       Am Am  Am Am  Bm Bm  D D
   I've given all I can but we're still on the payroll 
Chorus :
 C C             D D       G G  F# F#
   This is what you get,
 C C             D D       G G  F# F#
   This is what you get,
 C C             D D       G G  
   This is what you get 
            F# F#         C C     C C  Bm Bm  D D
   When you mess with us 



Ending :
Bm Bm       D D      G G       D D      G G      D D      E7 E7
   For a minute there I lost myself I lost myself 
Bm Bm            D D      G G       D D      G G      D D      E7 E7
   Phew for a minute there I lost myself I lost myself 


[Bm Bm][D D][G G][D D][G G][D D][E7 E7][E7 E7]


Bm Bm           D D      G G       D D      G G      D D      E7 E7
   And For a minute there I lost myself I lost myself 
Bm Bm             D D      G G       D D      G G       D D      E7 E7         Bm Bm>let ring
   Phew, for a minute there I lost myself, I lost myself 

Video Clip

Comments

facebook
Follow us on Facebook!
forum
Need Help? Ask your questions here!
Music expresses that which cannot be said and on which it is impossible to be silent.
(Victor Hugo)