Did you know ? We offer a chords chart including more than 1000 choard diagrams with photos !
Pinterest T4A Youtube T4A Twitter T4A Facebook T4A

74/75 tab

Save tablatureAdd to favorites
tablature comments 0 Comments
Print tablaturePrint
Free 74/75 tab for the acoustic guitar. Learn to play The Connells with easy chords for beginners
starSong listed in our famous tablatures

Chords (5)

How to read and play chords for beginners

Chord C (x,3,2,0,1,0)
View chord photo
Chord F (1,3,3,2,1,1)
View chord photo
Chord G (3,2,0,0,3,3)
View chord photo
Chord Am (x,0,2,2,1,0)
View chord photo

Strumming patterns

No rhythm pattern for this song yet..

What strumming pattern for this song?
Collection of strumming patterns

 

Tab

How to read a Tab

You must be logged in to use these tools.
(Auto-scroll, metronome, text size)
Intro: 

   Am Am            C C         G G        Am Am(*)
E |------------------0-0---3-------|--------0-0-0-0---0-0-----------|
B |------------------1-1---0-------|--------1-1-1-1---1-1-----------|
G |------------------0-0---0-------|--------2---2-2---2-2-----------|  x2
D |------2-0---------2-2---0-------|--------2---2-2---2-2-----------|
A |0---------3-0-3---------2-------|0---0---------------------------|
E |------------------------3-------|--------------------------------|


1st verse :
F F         C C          F F                    C C    C/B C/B     F F
   Got no reason for coming to me and the rain running down.
           C C         Am Am(*)
There's no reason.
F F          C C          F F                      C C    C/B C/B    F F    
   And the same voice coming to me like it's all slowing down.
       C C          G G 
And believe me


Chorus :
          Am Am              C C                G G          F F        Am Am  C C  G G  G G
I was the one who let you know, I was your sorry-ever-after. '74-'75


2nd verse :
F F           C C     F F                          C C  C/B C/B  F F
   It's not easy, nothing to say 'cause it's already said.
           C C      Am Am(*)
It's never easy


Pre-chorus :
       F F            C C           Am Am   -    G G   -   F F
When I look on your eyes then I find that I'll do fine.
       Am Am           C C              G G
When I look on your eyes then I do better.


Chorus:
          Am Am              C C                G G          F F        Am Am  C C  G G
I was the one who let you know, I was your sorry-ever-after. '74-'75
         Am Am              C C                G G           F F       Am Am  C C  G G
Givin me more and i'll defy, cause you're really only after '74-'75.

   Am Am            C C         G G        Am Am(*)
E |------------------0-0---3-------|--------0-0-0-0---0-0-----------|
B |------------------1-1---0-------|--------1-1-1-1---1-1-----------|
G |------------------0-0---0-------|--------2---2-2---2-2-----------|  x2
D |------2-0---------2-2---0-------|--------2---2-2---2-2-----------|
A |0---------3-0-3---------2-------|0---0---------------------------|
E |------------------------3-------|--------------------------------|

Solo : 
    C C               G G                Am Am
E -|--------------3/5-3---------0---/3-------------------------------|
B 3/5-3---3/5-3-----------5---------|----0-------3-------------------|
G -|----5-------5-------------------|--------5-------4---5-4/5-5\4---|
D -|--------------------------------|--------------------------------|
A -|--------------------------------|--------------------------------|
E -|--------------------------------|--------------------------------|

   C C               G G                Am Am
E |--------------------------------|--------------------------------|
B |--------------------------------|-------------------------------3/
G |0---------0h2h4/5-----4-----2-0-h2-------------------------------|
D |--------------------------------|--------------------------------|
A |--------------------------------|--------------------------------|
E |--------------------------------|--------------------------------|


   C C               G G                Am Am              F F
E |--------------3/5-3------------3/5-3---3/5-3---------------------|
B /5-3---3/5-3-----------5-----5---|----5-------5---------5/6---5---|
G |----5-------5-------------------|----------------5---------------|
D |--------------------------------|--------------------------------|
A |--------------------------------|--------------------------------|
E |--------------------------------|--------------------------------|
  
   C C               G G                
E |--------------------------------|
B |--------------------------------|
G |------------------------5---4---|
D |--------------------------------|
A |--------------------------------|
E |--------------------------------|



3rd verse :
F F         C C          F F                    C C    C/B C/B     F F
   Got no reason for coming to me and the rain running down.
           C C         Am Am(*)
There's no reason



Pre-chorus : 
       F F            C C           Am Am   -    G G   -   F F
When I look on your eyes then I find that I'll do fine.
       Am Am           C C              G G
When I look on your eyes then I do better.



Chorus :
          Am Am              C C                G G          F F        Am Am  C C  G G
I was the one who let you know, I was your sorry-ever-after. '74-'75
         Am Am              C C                G G           F F       Am Am  C C  G G
Givin me more and i'll defy, cause you're really only after '74-'75.
          Am Am              C C                G G          F F        Am Am  C C  G G
I was the one who let you know, I was your sorry-ever-after. '74-'75
         Am Am              C C                G G           F F       Am Am  C C  G G
Givin me more and i'll defy, cause you're really only after '74-'75.
          Am Am              C C                G G          F F        Am Am  C C  G G
I was the one who let you know, I was your sorry-ever-after. '74-'75
         Am Am              C C                G G           F F       Am Am  C C  G G
Givin me more and i'll defy, cause you're really only after '74-'75.


Ending : [Am Am][C C][G G][F F][Am Am][C C]   x2

Video Clip

Comments

facebook
Follow us on Facebook!
forum
Need Help? Ask your questions here!
Without music life would be a mistake.
(Nietzsche)