Did you know ? We offer an exclusive scale finder of more than 83.000 guitar scales !
Pinterest T4A Youtube T4A Twitter T4A Facebook T4A

Heart Of Stone tab

Save tablatureAdd to favorites
tablature comments 0 Comments
Print tablaturePrint
Tune your guitar half a step down (Eb tuning) to play in original song key.

Chords (5)

How to read and play chords for beginners

Chord C (x,3,2,0,1,0)
View chord photo
Chord D (x,x,0,2,3,2)
View chord photo
Chord Em (0,2,2,0,0,0)
View chord photo
Chord G (3,2,0,0,3,3)
View chord photo

Strumming patterns

No rhythm pattern for this song yet..

What strumming pattern for this song?
Collection of strumming patterns

 

Tab

How to read a Tab

Zoom A- | Reset | A+
Metronome
AutoScroll
0 1 2 3 4 5 6

Struggling with "Heart Of Stone"? Learn songs step-by-step in 15 minutes!

Intro: 
Em Em                                          G G
eb|--------------------------------------------------------------------------------------------|
Bb|-------------------0----------------------------------------------3-------------------------|
Gb|-------0-----------------------0-------------------0--------------------------0-------------|  x2
Db|-------------2-----------2-------------------------------0--------------0--------------0----|
Ab|----------2-----------2-------------------------------2-----2-------------------------------|
Eb|-0--0-----------0-----------0--------0h2--0--3--3--------------3-----3-----3-----2--2-----0-|




Verse #1:
    Em Em                               G G
Sometimes I look in the mirror and I don't like what I see
D D                                    C C
And I wonder if she'll ever know the darker side of me
Em Em                       G G
 Is my reflection just a shell of the truth?
D D                      C C
 Am Am I the living or am I the dying proof?


Chorus:
G G                           D D
 I'm learning to move slow, I'm learning to let go
    Em Em                            C C
I'm learning most things a man my age is supposed to know
G G                           D D
 I'm learning how to write, I'm learning how to sleep at night
    Em Em                                   C C
I'm learning after these years how to be thankful for what I got
            G G                   D D
And I carry on with a heart of stone
                  Em Em    Em Em
And calloused hands


Verse #2:
    Em Em                       G G
Sometimes I think I'm crazy, washed up in the brain
D D                       C C
As for my youth I threw most of those years away
Em Em                              G G
 And I can't even apologize for half the things I've done
   D D                                     C C
Or all the nights spent looking down the wrong end of a gun


Chorus:
G G                             D D
 But I'm learning how to love, I'm learning about the Lord above
    Em Em                                        C C
I'm learning that he's giving me more than anything I could dream of
G G                        D D
 I'm learning how to pray a little more everyday
    Em Em                             C C
I'm learning to accept the things about me I can't change
            G G                   D D
And I carry on with a heart of stone
                  Em Em    Em Em
And calloused hands


Solo:
              Em Em                             G G
eb|-3p0-----|------------------------------|------------------------------|
Bb|-----3/5-|-5~~--3----------------/3--/3-|-/3-------------------------3-|
Gb|---------|--------4\2p0---2--0~--/4--/4-|-/4--4\2--0---0~------0--/4---|
Db|---------|------------------------------|------------2-----0h2---------|
Ab|---------|------------------------------|------------------------------|
Eb|---------|------------------------------|------------------------------|

    Em Em                             G G
eb|---3--------------------------|---------------3~~------------|
Bb|-5---5~~--3-------------------|-----------3h5--------3h5-3h5-|
Gb|------------4\2-------3p2p0---|-0~~---/4---------------------|
Db|----------------0h2-5-------2-|------------------------------|
Ab|------------------------------|------------------------------|
Eb|------------------------------|------------------------------|

    D D                              C C
eb|------------------------------|------------------------------|
Bb|-3h5-3~-----------------------|-----------3------------------|
Gb|---------3p2p0-2-0~-----------|-----0-2/4---4\2p0--2br0----0~|
Db|---------------------0h2-0h2--|-0h2---------------------0h2--|
Ab|------------------------------|------------------------------|
Eb|------------------------------|------------------------------|

    Em Em                             Em Em                             G G (chorus)
eb|------------------------------|--------------------10--8--7--|-7---------
Bb|-------8----------------------|--------------10/12-----10-8--|-8------8--
Gb|~--------9--7-----------------|------------------------------|-----------
Db|---------------9\7---5--------|--5---------------------------|---/9------
Ab|------------------------------|----7--7~~~-------------------|-----------
Eb|------------------------------|------------------------------|-----------


Chorus:
G G                           D D
 I'm learning to move slow, I'm learning  to let go
    Em Em                            C C
I'm learning most things a man my age is supposed to know
G G                       D D
I'm learning how to love, I'm learning about the Lord above
    Em Em                                        C C
I'm learning that she's given me more than anything I could dream of
            G G                   D D
And I carry on with a heart of stone
                  Em Em
And calloused hands
             G G                      D D
yeah I carry on with this heart of stone
                  C C   C/B C/B   Em Em>let ring
And calloused hands

Struggling with "Heart Of Stone"? Learn songs step-by-step in 15 minutes!

Comments

facebook
Follow us on Facebook!
forum
Need Help? Ask your questions here!
Music is the wine that fills the cup of silence
(Robert Fripp)