Did you know ? We offer a chords chart including more than 1000 choard diagrams with photos !

Nutshell tab

Free Nutshell tab for the acoustic guitar. Learn to play Alice in Chains with easy chords for beginners
MP3 You must be logged in to listen to Nutshell in MP3.

Chords (7)

How to read and play chords for beginners

Chord Csus2 (x,3,0,0,1,3)
View chord photo
Chord Cadd9 (x,3,0,0,1,0)
View chord photo
Chord D (x,x,0,2,3,2)
View chord photo
Chord E (0,2,2,1,0,0)
View chord photo
Chord Em (0,2,2,0,0,0)
View chord photo
Chord G (3,2,0,0,3,3)
View chord photo
Chord G6 (3,2,0,0,0,0)
View chord photo

Strumming patterns

No rhythm pattern for this song yet..
Collection of strumming patterns

 

Tab

How to read a Tab

You must be logged in to use these tools.
(Auto-scroll, metronome, text size)
Intro :
    E E    G G    D D      Cadd9 Cadd9             Csus2 Csus2         Cadd9 Cadd9                 Em Em
e|--0----3----2---|--0----0--0-0---0---0--0-0-|--0-0-0--0--0-0-0-0-0-0---3----|
B|--0----3----3---|--3----3--3-3---3---3--3-3-|--3-3-3--3--3-3-3-3-3-3-3-3----|
G|--1----0----2---|--0----0--0-0---0---0--0-0-|--0-0-0--0--0-0-0-0-0-0-0---0--|
D|--2----0----0-0-|--2----2--2---0-----0--0-0-|--0-2-2--2--2-2-2-2-2-2-2---2--|
A|--2----2--2---0-|--3----3--3---3-----3--3---|----3-3--3--3-3-3-3-3-3-3---2--|
E|--0--0----0-----|---------------------------|----------------------------0--|
 

Main Riff (all along the song):
      G6 G6              G G    D D      Cadd9 Cadd9             Csus2 Csus2       Cadd9 Cadd9                   Em Em             
||---------3---3------3----2---|--0----0--0-0---0---0--0-0-|--0-0-0--0--0-0-0-0-0-0---3----||
||----3--3-3---3------3----3---|--3----3--3-3---3---3--3-3-|--3-3-3--3--3-3-3-3-3-3-3-3----||
||----0--0-0-0-0-0--0-0----2---|--0----0--0-0---0---0--0-0-|--0-0-0--0--0-0-0-0-0-0-0---0--||
||----2--2---2---2--0-0--0-0---|--2----2--2---0-----0--0-0-|--0-2-2--2--2-2-2-2-2-2-2---2--||
||----2--2---2---2--2-2--0---0-|--3----3--3---3-----3--3---|----3-3--3--3-3-3-3-3-3-3---2--||
||----0--0---0---0----3--0-----|---------------------------|----------------------------0--||


Intro : Intro + (Main riff x4)


1st verse :
Cadd9 Cadd9    Csus2 Csus2  Cadd9 Cadd9  Cadd9 Cadd9            G6 G6       G G --  D D --
We____________________ chase misprinted lies
Cadd9 Cadd9    Csus2 Csus2  Cadd9 Cadd9  Cadd9 Cadd9            G6 G6       G G --  D D --
We____________________ face the path of time
Cadd9 Cadd9      Csus2 Csus2      Cadd9 Cadd9            Cadd9 Cadd9      G6 G6       G G --  D D --
 And yet I fight, and yet I fight this battle all alone
Cadd9 Cadd9    Csus2 Csus2  Cadd9 Cadd9  Cadd9 Cadd9            G6 G6       G G --  D D --
No one to cry to,      no place to call home


Chorus :
Cadd9 Cadd9   Csus2 Csus2  Cadd9 Cadd9  Cadd9 Cadd9            G6 G6       G G --  D D --
Oooooh Oooooh...              Oooooh Oooooh...
Cadd9 Cadd9   Csus2 Csus2  Cadd9 Cadd9  Cadd9 Cadd9            G6 G6       G G --  D D --
Oooooh Oooooh...              Oooooh Oooooh...


2nd verse :
Cadd9 Cadd9    Csus2 Csus2  Cadd9 Cadd9  Cadd9 Cadd9            G6 G6       G G --  D D --
My____________________ gift of self is raped
Cadd9 Cadd9    Csus2 Csus2  Cadd9 Cadd9  Cadd9 Cadd9      G6 G6       G G --  D D --
My____________________ privacy is raked
Cadd9 Cadd9    Csus2 Csus2       Cadd9 Cadd9        Cadd9 Cadd9         G6 G6       G G --  D D --
 And yet I find, and yet I find repeating in my head
Cadd9 Cadd9    Csus2 Csus2  Cadd9 Cadd9   Cadd9 Cadd9        G6 G6       G G --  D D --
If I can’t be my own I’d feel better dead


Chorus :
Cadd9 Cadd9   Csus2 Csus2  Cadd9 Cadd9  Cadd9 Cadd9            G6 G6       G G --  D D --
Oooooh Oooooh...              Oooooh Oooooh...
Cadd9 Cadd9   Csus2 Csus2  Cadd9 Cadd9  Cadd9 Cadd9            G6 G6       G G --  D D --
Oooooh Oooooh...              Oooooh Oooooh...


Main riff x4

Video Clip

Member Area
Music is the wine that fills the cup of silence
(Robert Fripp)
W3C
(c) 2000-2014 tabs4acoustic.com
Rescue T4A, kill an ad!