Did you know ? We offer an exclusive scale finder of more than 83.000 guitar scales !
Pinterest T4A Youtube T4A Twitter T4A Facebook T4A

Situations tab

Save tablatureAdd to favorites
tablature comments 0 Comments
Print tablaturePrint
Free Situations tab for the acoustic guitar. Learn to play Jack Johnson with easy chords for beginners

Chords (4)

How to read and play chords for beginners

Chord E (0,2,2,1,0,0)
View chord photo
Chord F# (2,4,4,3,2,2)
View chord photo
Chord G#m (4,6,6,4,4,4)
View chord photo
Chord B (x,2,4,4,4,2)
View chord photo

Strumming patterns

No rhythm pattern for this song yet..

What strumming pattern for this song?
Collection of strumming patterns

 

Tab

How to read a Tab

You must be logged in to use these tools.
(Auto-scroll, metronome, text size)
Riff (through the song) :

    B B        G#m G#m       E E        F# F# - E E -
E |------------------|-------------------|
B |------------------|-------------------|
G |----------1-------|-1--------3----1---|
D |-1--------x-------|-2--------4----2---|
A |-2--------2-------|-2--------4----2---|
E |------------------|-------------------|

PM--------------------------------------->


B B
Situation number one
G#m G#m
It's the one that's just begun
   E E                   F# F#   -    E E   -
But evidently it's too late

B B
Situation number two
G#m G#m
It's the only chance for you
    E E                          F# F#   -    E E   -
It's controlled by denizens of hate

B B
Situation number three
G#m G#m
It's the one that no one sees
    E E                           F# F#   -    E E   -
It's all too often dismissed as fate

B B
Situation number four
         G#m G#m
It's the one that left you wanting more
E E                            F# F#   -    E E   -
 It tantalized you with it's bait


Outro :

e |---------------------------------------------------
B |-(4)----(9)(7)----(5)(2)----(0)(2)-----------------
G |---------------------------------------------------
D |--1------6--4------2-----------1--2----------------
A |--2------7--6------4--4------4-x--x----------------
E |----------------------5--------2--2----------------



e |---------------------------|-------------------------| 
B |-4--9-7--5-2--0-2--4h5--4--|--9-7--5-2--0-2--4h5--4--| 
G |---------------------------|-------------------------| 

Video Clip

Comments

facebook
Follow us on Facebook!
forum
Need Help? Ask your questions here!
Without music life would be a mistake.
(Nietzsche)